Song name
# A B C D E F G H I J K L M N O P Q R S T U V W X Y Z

Spinal Tap - Listen To The Flower People tab

Easy song

Standard Tuning

e
B
G
D
A
E

Guitar 2 (Nigel)

|-------0--(0)-------2h3-2--|
|-----3------------3--------|
|---2------------2----------|
|-0------------0------------|
|---------------------------|
|---------------------------|x2

Chords that are used:

Guitar 1 (David)

(Stum Each chord for 8 counts)

 (D).     (E).     (G).     (D).
|-2--------4--------3--------2--------|
|-3--------5--------3--------3--------|
|-2--------4--------3--------2--------|
|-0--------0--------5--------0--------|
|-------------------5-----------------|
|-------------------3-----------------|


 (D).     (E).     (G).     (F).
|-2--------4--------3--------2----|
|-3--------5--------3--------2----|
|-2--------4--------3--------3----|
|-0--------0--------5--------4----|
|-------------------5--------4----|
|-------------------3--------2----|
Tap to rate this tab
# A B C D E F G H I J K L M N O P Q R S T U V W X Y Z