Song name
# A B C D E F G H I J K L M N O P Q R S T U V W X Y Z

Spinal Tap - Nigels tab

Here is the solo that Nigel does and I'm not really sure what song it from.
Its a Bach or Mozart thing.

e|5-4-5-7-5---0-0----------0---------------5-2-0----5-2-0---|
B|-----------2---3-3--3-2-3-3----3--3--2--2------4-4-----4-4|
G|----------2------------------1----------------------------|
D|----------------------------2-----------------------------|
A|----------------------------------------------------------|
E|----------------------------------------------------------|

e|5-2-4-0-5-2-H4-0-0|
B|-------2----------|
G|------------------|
D|------------------|   H=Hammer on and off
A|------------------|
E|------------------|END
Tap to rate this tab
# A B C D E F G H I J K L M N O P Q R S T U V W X Y Z