Song name
# A B C D E F G H I J K L M N O P Q R S T U V W X Y Z

Spindrift - The Legend Of Gods Gun tab

http://en.wikipedia.org/wiki/Spindrift_%28band%29
Spindrift - The Legend of God's Gun TAB
Chords for whole song: D F G F

Intro Keyboard bit

e|-------------------------------10----------------------------------------|
B|-----------------------10--12--------------------------------------------|
G|-11--10--9--7----11------------------------------------------------------|
D|-------------------------------------------------------------------------|
A|-------------------------------------------------------------------------|
E|-------------------------------------------------------------------------|

Riff during verse 1 and 2
bend is about .25

e|-------------------------------------------------------------------------|
B|-------------------------------------------------------------------------|
G|-------------------------------------------------------------------------|
D|-------9b--------------------------------3-------------------------------|
A|------------8b---5----3--5------3--5-------5--3--5-----------------------|
E|-------------------------------------------------------------------------|

Solo riff bit after 2nd Verse

e|-------------------------------------------------------------------5--------|
B|-------------------6-------------------------------------6--6--8------------|
G|--7--5--7--5--7-----7--5--7-----5--7--5--7-----7----------------------------|
D|----------------------------------------------------------------------------|
A|----------------------------------------------------------------------------|
E|----------------------------------------------------------------------------|

e|----------------------------------------------------------------------------|
B|--------------------6-------------------------------------8--8--6-----------|
G|--7--5--7--5--7-----7--5--7-----5--7--5--7-----7----------------------------|
D|----------------------------------------------------------------------------|
A|----------------------------------------------------------------------------|
E|----------------------------------------------------------------------------|

3rd Verse

e|-------------------------------------------------------------------------|
B|-----------------------------------------------------------------10------|
G|-------------------------------------------------------------------------|
D|-------9b--------------------------------3-------------------------------|
A|------------8b---5----3--5------3--5-------5--3--5-----------------------|
E|-------------------------------------------------------------------------|

Solo bit again, the same as before

e|-------------------------------------------------------------------5--------|
B|-------------------6-------------------------------------6--6--8------------|
G|--7--5--7--5--7-----7--5--7-----5--7--5--7-----7----------------------------|
D|----------------------------------------------------------------------------|
A|----------------------------------------------------------------------------|
E|----------------------------------------------------------------------------|

e|----------------------------------------------------------------------------|
B|--------------------6-------------------------------------8--8--6-----------|
G|--7--5--7--5--7-----7--5--7-----5--7--5--7-----7----------------------------|
D|----------------------------------------------------------------------------|
A|----------------------------------------------------------------------------|
E|----------------------------------------------------------------------------|

Outro solo bit


e|-14-13-12-10------8--10--8--10--8--10--13--10--8--10---------------------|
B|-------------------------------------------------------------------------|
G|-------------------------------------------------------------------------|
D|-------------------------------------------------------------------------|
A|-------------------------------------------------------------------------|
E|-------------------------------------------------------------------------|

e|-8--10--8--10-------8--10--10--13--15------------------------------------|
B|-------------------------------------------------------------------------|
G|-------------------------------------------------------------------------|
D|-------------------------------------------------------------------------|
A|-------------------------------------------------------------------------|
E|-------------------------------------------------------------------------|



e|-14-13-12-10------8--10--8--10--8--10--13--10--8--10---------------------|
B|-------------------------------------------------------------------------|
G|-------------------------------------------------------------------------|
D|-------------------------------------------------------------------------|
A|-------------------------------------------------------------------------|
E|-------------------------------------------------------------------------|

e|-8--10--8--10-------8---15--15--13---------------------------------------|
B|-------------------------------------------------------------------------|
G|-------------------------------------------------------------------------|
D|-------------------------------------------------------------------------|
A|-------------------------------------------------------------------------|
E|-------------------------------------------------------------------------|

<<<<<<<<<<<<<>>>>>>>>>>>>>>>>>>>>>>>>>

e |-14-13-12-10----14-13-12-10-----14-13-12-10-----14-17--19-22------------|
B|-------------------------------------------------------------------------|
G|-------------------------------------------------------------------------|
D|-------------------------------------------------------------------------|
A|-------------------------------------------------------------------------|
E|-------------------------------------------------------------------------|
Tap to rate this tab
 
# A B C D E F G H I J K L M N O P Q R S T U V W X Y Z