Song name
# A B C D E F G H I J K L M N O P Q R S T U V W X Y Z

Spineshank - Grey tab

Artist - Spineshank
Song - Grey
Album - Strictly Diesel

Tuning: Tune down one and a half steps.

Verse [Undo this guilt..] 
|-----------------------------------------| 
|-----------------------------------------| 
|-----------------------------------------| 
|-6--6--6--6-6-----6--6--6--6--6--6--6--6-| 
|-4--4--4--4/5-----4--4--4--4--5--5--5--5-| 
|-----------------------------------------| 

Pre-chorus [Grey that lurks inside of me..]
|---------------------| 
|---------------------| 
|---------------------| 
|-6-6-6-6-6--6--6--6--| 
|-4-4-4-4-4--5--5--5--| 
|---------------------| 
<- P.M. -> 

Pre-chorus partial 
|-------------------------------------------------| 
|-------------------------------------------------| 
|-------------------------------------------------| 
|-------------------------------------------------| 
|-7--7--7--7--7--7--7--7---5--5--5--5--5--5--5--5-| 
|-------------------------------------------------| 

Chorus 
|--------------------------| 
|--------------------------| 
|----8-----8---------------| 
|-8--8--8--8--11--11--4--6-| 
|-6--6--6--6--9---9---2--4-| 
|--------------------------| 

After-chorus partial 
|-------------------------------------------------| 
|-------------------------------------------------| 
|-------------------------------------------------| 
|-------------------------------------------------| 
|-------------------------------------------------| 
|-7--7--7--7--7--7--7--7--8--8--8--8--8--8--8--8--| 

[All I see is grey..] 
|----------------------| 
|----------------------| 
|----------------------| 
|-6--6--6--6--9--9--7--| 
|-4--4--4--4--7--7--5--| 
|----------------------|



tab taken from http://snap.to/spineshank
Tap to rate this tab
 
# A B C D E F G H I J K L M N O P Q R S T U V W X Y Z