Song name
# A B C D E F G H I J K L M N O P Q R S T U V W X Y Z

Spineshank - Born Conform Repent tab

-------------------------------------------------------------------------------
			BORN CONFORM REPENT - Spineshank
-------------------------------------------------------------------------------
Tabbed by: Shard Heilia
Email: ShardNet@gmail.com

Tuning: Dropped C


Intro:

D|---------------------------------------------------------------------------|
A|---------------------------------------------------------------------------|
F|---7-7-7-7--6-6-6-6--------------7-7-7-7-6-6-6-6-10-10-10-10-9-9-9-9-------|
C|---7-7-7-7--6-6-6-6--------------7-7-7-7-6-6-6-6-10-10-10-10-9-9-9-9-------|
G|---5-5-5-5--4-4-4-4--------------5-5-5-5-4-4-4-4--8--8--8--8-7-7-7-7-------|
C|---------------------------------------------------------------------------|


Verse 1:
				(2x)			      (2x) Whole figure 2x
D|---------------------------------------------------------------------------|
A|---------------------------------------------------------------------------|
F|--7-7---7-7-7---7-7-7---7-7-7----------------------------------------------|
C|--7-7---7-7-7---7-7-7---7-7-7----0-1-0---0-1-0---0-1-0---0-1-0-------------|
G|--0-0---0-0-0---0-0-0---0-0-0----0-1-0---0-1-0---0-1-0---0-1-0-------------|
C|--0-0---0-0-0---0-0-0---0-0-0----0-1-0---0-1-0---0-1-0---0-1-0-------------|


				(2x)
D|---------------------------------------------------------------------------|
A|---------------------------------------------------------------------------|
F|--7-7---7-7-7---7-7-7---7-7-7----------------------------------------------|
C|--7-7---7-7-7---7-7-7---7-7-7----------------------------------------------|
G|--0-0---0-0-0---0-0-0---0-0-0----------------------------------------------|
C|--0-0---0-0-0---0-0-0---0-0-0----------------------------------------------|


			   (3x)                                               Whole Figure 2x
D|---------------------------------------------------------------------------|
A|---------------------------------------------------------------------------|
F|------------------------------------------------5~-------------------------|
C|-0-0-0-0-0-0------------------------------------5~-------------------------|
G|-0-0-0-0-0-0------------------------------------3~-------------------------|
C|-0-0-0-0-0-0-3-5-6-0-3-5----0-0-0-0-0-0-3-5-6-0----------------------------|


D|---------------------------------------------------------------------------|
A|---------------------------------------------------------------------------|
F|---------------------------------------------------------------------------|
C|-0-0-0-0-------------------------------------------------------------------|
G|-0-0-0-0-------------------------------------------------------------------|
C|-0-0-0-0-------------------------------------------------------------------|


Verse 2:

				(2x)				(2x)	Whole figure 2x
D|---------------------------------------------------------------------------|
A|---------------------------------------------------------------------------|
F|--7-7---7-7-7---7-7-7---7-7-7----------------------------------------------|
C|--7-7---7-7-7---7-7-7---7-7-7----0-1-0---0-1-0---0-1-0---0-1-0-------------|
G|--0-0---0-0-0---0-0-0---0-0-0----0-1-0---0-1-0---0-1-0---0-1-0-------------|
C|--0-0---0-0-0---0-0-0---0-0-0----0-1-0---0-1-0---0-1-0---0-1-0-------------|


D|---------------------------------------------------------------------------|
A|---------------------------------------------------------------------------|
F|-7-7-7-7-7-7-7-7-----------------------------------------------------------|
C|-7-7-7-7-7-7-7-7-----------------------------------------------------------|
G|-5-5-5-5-5-5-5-5-----------------------------------------------------------|
C|---------------------------------------------------------------------------|

Prechorus:


D|---------------------------------------------------------------------------|
A|-------------------3(5)-3~---6(8)-6~---------------------------------------|
F|-------5(7)-5~----------------------------5(7)-5~--------------------------|
C|-0------------------------------------0------------5(6)-5~-5/4~------------|
G|-0------------------------------------0------------------------------------|
C|-0------------------------------------0------------------------------------|

Chorus:


D|---------------------------------------------------------------------------|
A|---------------------------------------------------------------------------|
F|---------------------------------------------------------------------------|
C|-0-0----------0------0-----0-0-----0---------------------------------------|
G|-0-0-5-3-5-6--0-5-3--0-5-3-0-0-5-3-0-5-3-----------------------------------|
C|-0-0----------0------0-----0-0-----0---------------------------------------|


D|---------------------------------------------------------------------------|
A|---------------------------------------------------------------------------|
F|---------------------------------------------------------------------------|
C|-5----1----1-1-------------------------------------------------------------|
G|-5----1----1-1-------------------------------------------------------------|
C|-5----1----1-1-------------------------------------------------------------|


D|---------------------------------------------------------------------------|
A|---------------------------------------------------------------------------|
F|---------------------------------------------------------------------------|
C|-0-0----------0------0-----0-0-----0---------------------------------------|
G|-0-0-5-3-5-6--0-5-3--0-5-3-0-0-5-3-0-5-3-----------------------------------|
C|-0-0----------0------0-----0-0-----0---------------------------------------|

D|---------------------------------------------------------------------------|
A|---------------------------------------------------------------------------|
F|---------------------------------------------------------------------------|
C|-5----1----1-1-------------------------------------------------------------|
G|-5----1----1-1-------------------------------------------------------------|
C|-5----1----1-1-------------------------------------------------------------|

D|---------------------------------------------------------------------------|
A|-------------------3(5)-3~---6(8)-6~---------------------------------------|
F|-------5(7)-5~----------------------------5(7)-5~--------------------------|
C|-0------------------------------------0------------5(6)-5~-5/4~------------|
G|-0------------------------------------0------------------------------------|
C|-0------------------------------------0------------------------------------|

Postchorus:


D|---------------------------------------------------------------------------|
A|---------------------------------------------------------------------------|
F|-------------7-7-7---------------10-10-10----------------------------------|
C|-------------7-7-7---------------10-10-10----------------------------------|
G|-------------5-5-5----------------8--8--8----------------------------------|
C|-0-0-0-0-0-0-------0-0-0-0-0-0-0-------------------------------------------|


D|---------------------------------------------------------------------------|
A|---------------------------------------------------------------------------|
F|-----10-10-10-10------13-13-13-13-----------13-13-13-13--------------------|
C|-----x--x--x--x-------x--x--x--x---0-0-0-0--x--x--x--x---------------------|
G|-----8--8--8--8-------11-11-11-11--0-0-0-0--11-11-11-11--------------------|
C|-0-0-------------0-0---------------0-0-0-0---------------------------------|


D|---------------------------------------------------------------------------|
A|---------------------------------------------------------------------------|
F|-------------------------------------------7-7-7-7-6-6-6-6-----------------|
C|-3-1-0--0-1-0-0--0-0-1-0-3---3-1-0-0--0-0--7-7-7-7-6-6-6-6-----------------|
G|-3-1-0--0-1-0-0--0-0-1-0-3---3-1-0-0--0-0--5-5-5-5-4-4-4-4-----------------|
C|-3-1-0--0-1-0-0--0-0-1-0-3---3-1-0-0--0-0----------------------------------|

D|---------------------------------------------------------------------------|
A|---------------------------------------------------------------------------|
F|-7-7-7-7-6-6-6-6-----------------------------------------------------------|
C|-7-7-7-7-6-6-6-6-0-0-0-0---------------------------------------------------|
G|-5-5-5-5-4-4-4-4-0-0-0-0---------------------------------------------------|
C|-----------------0-0-0-0---------------------------------------------------|


D|---------------------------------------------------------------------------|
A|---------------------------------------------------------------------------|
F|-----------------7-5---------------------------7-7-7-7-6-6-6-6-------------|
C|-----1p0-3p0-5-3-------0-3-1-3-0-3-1-3-0-3-1-3-7-7-7-7-6-6-6-6-------------|
G|-----------------------0-3-1-3-0-3-1-3-0-3-1-3-5-5-5-5-4-4-4-4-------------|
C|-0-0-------------------0-3-1-3-0-3-1-3-0-3-1-3-----------------------------|


D|---------------------------------------------------------------------------|
A|---------------------------------------------------------------------------|
F|---7-7-7-7-6-6-6-6-10-10-10-10-9-9-9-9-------------------------------------|
C|---7-7-7-7-6-6-6-6-10-10-10-10-9-9-9-9-------------------------------------|
G|---5-5-5-5-4-4-4-4--8--8--8--8-7-7-7-7-------------------------------------|
C|---------------------------------------------------------------------------|

Breakdown (Light Distortion):

									    (8x)
D|---------------------------------------------------------------------------|
A|---------------------------------------------------------------------------|
F|---------------------------------------------------------------------------|
C|---------------------------------------------------------------------------|
G|-----------5-3-5-6--------5-3-----5-3-----5-3-----5-3----------------------|
C|-0-1-0-1-0----------0-1-0-----0-1-----0-1-----0-1--------------------------|


Chorus:

D|---------------------------------------------------------------------------|
A|---------------------------------------------------------------------------|
F|---------------------------------------------------------------------------|
C|-0-0----------0------0-----0-0-----0---------------------------------------|
G|-0-0-5-3-5-6--0-5-3--0-5-3-0-0-5-3-0-5-3-----------------------------------|
C|-0-0----------0------0-----0-0-----0---------------------------------------|


D|---------------------------------------------------------------------------|
A|---------------------------------------------------------------------------|
F|---------------------------------------------------------------------------|
C|-5----1----1-1-------------------------------------------------------------|
G|-5----1----1-1-------------------------------------------------------------|
C|-5----1----1-1-------------------------------------------------------------|


D|---------------------------------------------------------------------------|
A|---------------------------------------------------------------------------|
F|---------------------------------------------------------------------------|
C|-0-0----------0------0-----0-0-----0---------------------------------------|
G|-0-0-5-3-5-6--0-5-3--0-5-3-0-0-5-3-0-5-3-----------------------------------|
C|-0-0----------0------0-----0-0-----0---------------------------------------|

D|---------------------------------------------------------------------------|
A|---------------------------------------------------------------------------|
F|---------------------------------------------------------------------------|
C|-5----1----1-1-------------------------------------------------------------|
G|-5----1----1-1-------------------------------------------------------------|
C|-5----1----1-1-------------------------------------------------------------|


D|---------------------------------------------------------------------------|
A|----3--3-------------------------------------------------------------------|
F|----2--2-------------------------------------------------------------------|
C|-0--------3----------------------------------------------------------------|
G|-0--------3----------------------------------------------------------------|
C|-0--------3----------------------------------------------------------------|

Outro:

D|---------------------------------------------------------------------------|
A|---------------------------------------------------------------------------|
F|-7-7-7-7-7-7------------7-7-7-7--------------------------------------------|
C|-7-7-7-7-7-7--1-0-1-3---7-7-7-7-1-0-1-3-1-0-1-3----------------------------|
G|-5-5-5-5-5-5--1-0-1-3---5-5-5-5-1-0-1-3-1-0-1-3----------------------------|
C|--------------1-0-1-3-----------1-0-1-3-1-0-1-3----------------------------|


				(4x)
D|---------------------------------------------------------------------------|
A|---------------------------------------------------------------------------|
F|-7-7---7-7-7--7-7-7---7-7-7------------------------------------------------|
C|-7-7---7-7-7--7-7-7---7-7-7------------------------------------------------|
G|-0-0---0-0-0--0-0-0---0-0-0------------------------------------------------|
C|-0-0---0-0-0--0-0-0---0-0-0------------------------------------------------|


D|---------------------------------------------------------------------------|
A|---------------------------------------------------------------------------|
F|---------------------------------------------------------------------------|
C|-0-0-0----0-0-0---0-0-0---0-1----------------------------------------------|
G|-0-0-0----0-0-0---0-0-0---0-1----------------------------------------------|
C|-0-0-0----0-0-0---0-0-0---0-1----------------------------------------------|


Fun tab to do, more complex than I thought it'd be. Love Spineshank though, awesome band.

As usual, email any questions or corrections to ShardNet@gmail.com.


Order: Play straight through.


| /  slide up
| \  slide down
| h  hammer-on
| p  pull-off
| ~  vibrato
| +  harmonic
| x  Mute note
| 1(2) Bend note 1 until it sounds like note 2
===============================================================================
Tap to rate this tab
# A B C D E F G H I J K L M N O P Q R S T U V W X Y Z