Song name
# A B C D E F G H I J K L M N O P Q R S T U V W X Y Z

Spineshank - The Height Of Callousness tab

Help us improve GuitareTab! Take a short survey!
Song: The Height of Callousness
Album: The height of Callounsness
Band: SpineShank
Transcribed by: Yu-Won Byun
E-mail: Tabboy87@hotmail.com

---note-----------------------------------------
This song is so easy to play. same pattern
is repeating everytime. Just every sound is little bit
different. There is nothing hard to play in this song.
------------------------------------------------------

Key: /- Slide
Tuning: 1 and a half steps down then 
        drop D (B-F#-B-E-G#-C#)

Intro
C#--------------------------------------------------I
G#--------------------------------------------------I
E---------------------------------------------------I
B--202-202-3-2-0-0--202-202-5-5/7-5-----------------I
F#-202-202-3-2-0-0--202-202-5-5/7-5-----------------I
B--202-202-3-2-0-0--202-202-5-5/7-5-----------------I

Verse
C#---------------------------------------I
G#---------------------------------------I
E----------------------------------------I
B----------------------------------------I
F#---------------------------------------I
B-202-202-3-2-0-0--202-202-5-5/7-5-------I
        Use Whammy.
 
 CHorus: Same as an intro part.

Riff
C#-------------------------------------I
G#-------------------------------------I
E--------------------------------------I
B--------------------------------------I
F#----------------------------3-3/5-3--I
B---100-0-0-100-0-0--100-0-0--3-3/5-3--I
 Play this part LITTLE BIT slowly.


THat's it!
----------------------------------------------------

 
:: Ultimate Guitar Archive :: 
http://www.ultimate-guitar.com 

Related for The Height Of Callousness tab