Song name
# A B C D E F G H I J K L M N O P Q R S T U V W X Y Z

Spineshank - Play God tab

Artist:Spineshank
Song:Play God
Album:Height Of Callousness
Tabbed By:Dean K. (projectwyze13@hotmail.com)

Intro Riff/Chorus

B-----------------------------------------
G-----------------------------------------
D-----------------------------------------
A--5---0---1---3--------------------------
E--5---0---1---3--------------------------
A--5---0---1---3--------------------------


After Verse

B-----------------------------------------
G-----------------------------------------
D-----------------------------------------
A--1-0-x-x-x-x-1-0-1-0-x-3-4-4------------
E--1-0-x-x-x-x-1-0-1-0-x-3-4-4------------
A--1-0-x-x-x-x-1-0-1-0-x-3-4-4------------

B-----------------------------------------
G-----------------------------------------
D-----------------------------------------
A--1-0-x-x-x-x-1-0-1-0-x-3-5-5------------
E--1-0-x-x-x-x-1-0-1-0-x-3-5-5------------
A--1-0-x-x-x-x-1-0-1-0-x-3-5-5------------


B-----------------------------------------
G-----------------------------------------
D-----------------------------------------
A-----------------------------------------
E-----------------------------------------
A--1-0-0-0-0-0-1-0-1-0-0-3-5-5------------

Break

B-----------------------------------------
G-----------------------------------------
D-----------------------------------------
A--3-2-2-2-2----3-2-2-2-5-5-5-5-----------
E--3-2-2-2-2----3-2-2-2-5-5-5-5-----------
A--3-2-2-2-2----3-2-2-2-5-5-5-5-----------
Tap to rate this tab
 
# A B C D E F G H I J K L M N O P Q R S T U V W X Y Z