Song name
# A B C D E F G H I J K L M N O P Q R S T U V W X Y Z

Spineshank - Shinebox tab

Help us improve GuitareTab! Take a short survey!
Artist - Spineshank
Song - Shinebox 
Album - Strickly Diesel


Tuning: Tune down one and a half steps then drop D one. 

Verse
|-------------------------------------------| 
|-------------------------------------------| 
|-------------------------------------------| 
|----------------------------0-0-0-0--0-0-0-| 
|-------------------------------------4-4-4-| 
|-0--0--0--0--0--0--0--0--0-----------------| 
<- PM -> 

Pre-chorus [Forced on me..] 
|-------------------------------------------| 
|-------------------------------------------| 
|-------------------------------------------| 
|-------------------------------------------| 
|-0--0--0--0--0--0--0--0--0--0-0-0-0--0-0-0-| 
|-0--0--0--0--0--0--0--0--0-----------4-4-4-| 

Chorus [Seems to be a crime..] 
|------------------------------------------------| 
|------------------------------------------------| 
|------------------------------------------------| 
|------------------------------------------------| 
|-3----------------------------------------------| 
|----0--0--0--0--0--0--0--0--0--0--0--0--0--0--0-| 

End of chorus [Seems to be..] 
|---------------------------------------------| 
|---------------------------------------------| 
|---------------------------------------------| 
|---------------------------------------------| 
|-3-------------------------------------------| 
|----0--0--0--0--0--0--0--2--2--2--3--3--3--3-| 

Bridge [So sad..] 
|----------------------------------------------------| 
|----------------------------------------------------| 
|-7--7--7--7--7--7--7--7--7--7--7--7--7--7--8--------| 
|-7--7--7--7--7--7--7--7--7--7--7--7--7--7-----------| 
|-5--5--5--5--5--5--5--5--5--5--5--5--5--5--6------3-| 
|--------------------------------------------------3-| 


tab taken from http://snap.to/spineshank
Related for Shinebox tab