Song name
# A B C D E F G H I J K L M N O P Q R S T U V W X Y Z

Spineshank - Where We Fall tab

Artist - Spineshank
Song - Where We Fall 
Album - Strickly Diesel


Tuning: Tune down one and a half steps then drop D one.

Intro/Verse
|-------------------------------| 
|-------------------------------| 
|-------------------------------| 
|-------------------------------| 
|-0--0---0--1--1---1--4--4--0-4-| 
|-0--0---0--1--1---1--4--4--0-4-| 

Chorus 
|------------------------| 
|------------------------| 
|-7--7--7---3--10/12-9-7-| 
|-x--x--x---x---x/ x-x-x-| 
|-5--5--5---1---8/10-7-5-| 
|------------------------| 

Sitar partial
|------------------------------------| 
|------------------------------------| 
|--7--7^-7---7--7^--7---7--7^-7---7--| 
|------------------------------------| 
|------------------------------------| 
|------------------------------------| 

Mid [For all my life..] 
|----------------------------| 
|----------------------------| 
|----------------------------| 
|----------------------------| 
|-0--0-0-0-0-0--1--1-3-3-3-3-| 
|-0--0-0-0-0-0--1--1-3-3-3-3-|  


tab taken from http://snap.to/spineshank
Tap to rate this tab
# A B C D E F G H I J K L M N O P Q R S T U V W X Y Z