Song name
# A B C D E F G H I J K L M N O P Q R S T U V W X Y Z

Spineshank - Slipper tab

Artist - Spineshank
Song - Slipper
Album - Strickly Diesel


Tuning: Tune down one and a half steps then drop D one.
Characters: ~ = vibrato

Intro/Verse
|---------------------------------------------------| 
|---------------------------------------------------| 
|---------------------------------------------------| 
|---------------------------------------------------| 
|---------------------------------------------------| 
|-0--0--0--8--8--8--7--7--7--10--10--10--8--8--7--8-| 

Last time
|-------------------------------------------------------| 
|-------------------------------------------------------| 
|-------------------------------------------------------| 
|-------------------------------------------------------| 
|-------------------------------------------------------| 
|-0--0--0--8--8--8--7--7--7--10--10--10--10--10--10--10-| 

Pre-Chorus 
|---------------------------------------------------| 
|---------------------------------------------------| 
|---------------------------------------------------| 
|---------------------------------------------------| 
|-0--0--0--8-----7-----10-----8--8--7--8------------| 
|-0--0--0--8-----7-----10-----8--8--7--8------------| 

Chorus 
|---------------------------------------------------------| 
|-------10/11/10/11-13/14/13/14---------------------------| 
|---------------------------------------------------------| 
|---------------------------------------------------------| 
|-------------------------------0-0-0-7---0-0-0-7---0-0-7-| 
|-10~~~~~~----------------------0-0-0-7---0-0-0-7---0-0-7-| 




tab taken from http://snap.to/spineshank
Tap to rate this tab
# A B C D E F G H I J K L M N O P Q R S T U V W X Y Z