Song name
# A B C D E F G H I J K L M N O P Q R S T U V W X Y Z

Spineshank - 40 Below tab

Artist - Spineshank
Song - 40 Below
Album - Strickly Diesel

Tuning: Tune down one and a half steps.

Intro/Verse 
|---------------| 
|---------------| 
|---------------| 
|---------------| 
|-------------1-| 
|-0--0--0--0----| 

Chorus [Sold!..]
|-------------------| 
|-------------------| 
|-------------------| 
|-------4--5--11-12-| 
|-2-2---2--3--9--10-| 
|-0-0---------------| 

Mid [crawl] 
|---------------------------------------------| 
|---------------------------------------------| 
|-9-9-9-9-10-10-10-12-12-12-12-12-12-12-12-12-| 
|-x-x-x-x-x--x--x---x--x--x--x--x--x--x--x--x-| 
|-7-7-7-7-8--8--8--10-10-10-10-10-10-10-10-10-| 
|---------------------------------------------| 

Mid continued [You come crawling..] 
|------------------------------| 
|------------------------------| 
|------------------------------| 
|------------------------------| 
|-2-2--3-3-3--5--5-5-5-5-5-5-5-| 
|-0-0--1-1-1--3--3-3-3-3-3-3-3-| 



tab taken from http://snap.to/spineshank
Tap to rate this tab
 
# A B C D E F G H I J K L M N O P Q R S T U V W X Y Z