Guitaretab - guitar tabs
Song name
# A B C D E F G H I J K L M N O P Q R S T U V W X Y Z

Spineshank - Strickly Diesel tab

Artist - Spineshank
Song - Strickly Diesel
Album - Strickly Diesel

Tuning: Tune down one and a half steps.

Intro 
|-----------------| 
|-----------------| 
|-----------------| 
|-----------------| 
|-----------------| 
|-0-1/0-3-0-1-0/1-| 

Verse 
|----------------------| 
|----------------------| 
|-7/10-7/8----7/10-7/8-| 
|----------------------| 
|----------------------| 
|----------------------| 

Verse continued [At first it..] 
|-----------------| 
|-----------------| 
|-----------------| 
|-7-7-7-8--7---10-| 
|-5-5-5-6--5---8--| 
|-----------------| 
[ Tab from: http://www.guitaretab.com/s/spineshank/33406.html ]
Chorus [Grow..] 
|---------------------------------| 
|---------------------------------| 
|-----3-------3-------3-------3---| 
|---3---3---3---3---3---3---3---3-| 
|-1-------1-------1-------1-------| 
|---------------------------------| 

Chorus [..and steal..] 
|-------------------------------------| 
|-------------------------------------| 
|-------------------------------------| 
|-------------------------------------| 
|-------------------------------------| 
|-0-1/0-3-0-1-0/1-----0-1/0-3-0-1-0/1-| 

Mid [You try to direct..] 
|-------------| 
|-------------| 
|-------------| 
|-7-7--8/10-8-| 
|-5-5--6/8--6-| 
|-------------| 



tab taken from http://snap.to/spineshank
Related for Strickly Diesel tab
Advertisement will be closed in 10 seconds