Song name
# A B C D E F G H I J K L M N O P Q R S T U V W X Y Z

Spineshank - Cant Be Fixed tab

Artist - Spineshank
Song - (Cant be) Fixed
Album - The Height of Callousness


Tuning: (Low to High) - A# F A# D# G C

Intro
|------------|
|------------|
|------------|
|-0--2--3--6-|
|-0--2--3--6-|
|-0--2--3--6-|


Chorus
|-----------------------------|
|-----------------------------|
|-2-2--2--2--2--8-8--8--8--8--|
|-0-0--0--0--0--6-6--6--6--6--|
|-0-0--0--0--0--6-6--6--6--6--|
|-0-0--0--0--0--6-6--6--6--6--|

|--------------------------------------|
|--------------------------------------|
|-10-10--10--10--10--10-10--10--10--10-|
|-08-08--08--08--08--08-08--08--08--08-|
|-08-08--08--08--08--08-08--08--08--08-|
|-08-08--08--08--08--08-08--08--08--08-|

Final Chorus
|-----------------------------|
|-----------------------------|
|-----------------------------|
|-----------------------------|
|-0-0--0--0--0--6-6--6--6--6--|
|-0-0--0--0--0--6-6--6--6--6--|

|-----------------------------|
|-----------------------------|
|-----------------------------|
|-----------------------------|
|-4-4--4--4--4--2-2--2--2--2--|
|-4-4--4--4--4--2-2--2--2--2--|


tab taken from http://snap.to/spineshank
Tap to rate this tab
# A B C D E F G H I J K L M N O P Q R S T U V W X Y Z