Guitaretab - guitar tabs
Song name
# A B C D E F G H I J K L M N O P Q R S T U V W X Y Z

Spineshank - Negative Space tab

Artist - Spineshank
Song - Negative Space
Album - The Height of Callousness


Tuning: (low to high) - A# F A# D# G C

Intro [Four times]
|-----------------------|
|-----------------------|
|-----------------------|
|-4--4--4-5---4--4--4-5-|
|-4--4--4-5---4--4--4-5-|
|-4--4--4-5---4--4--4-5-|

Verse [Three times]
|----------------------------------------------------|
|----------------------------------------------------|
|----------------------------------------------------|
|----------------------------------------------------|
|----------------------------------------------------|
|-0-0-0-0-0-0--6-6-6-6-6-6--4-4-4-4-4-4--5-5-5-5-5-5-|

|----------------------------------------------------|
|----------------------------------------------------|
|----------------------------------------------------|
|-0-0-0-0-0-0--6-6-6-6-6-6--4-4-4-4-4-4--5-5-5-5-5-5-|
|----------------------------------------------------|
|----------------------------------------------------|
[ Tab from: http://www.guitaretab.com/s/spineshank/33411.html ]
Chorus [Four times]
|----------------------------------------------------|
|----------------------------------------------------|
|-2-----2------9-----9------6-----6------11----11----|
|-0-----0------7-----7------4-----4------9-----9-----|
|-0-----0------7-----7------4-----4------9-----9-----|
|-0-----0------7-----7------4-----4------9-----9-----|

Breakdown [Four times]
|-----------------------|
|-----------------------|
|-----------------------|
|-0--------7------------|
|-0--------7------------|
|-0--------7------------|

|---------------------------------|
|---------------------------------|
|---------------------------------|
|---------------------------------|
|-0-0-0-0-0-0-0-0-7-7-7-7-7-7-7-9-|
|-0-0-0-0-0-0-0-0-7-7-7-7-7-7-7-9-|

|---------------------------------|
|---------------------------------|
|---------------------------------|
|---------------------------------|
|-0-0-0-0-4-4-4-4-5-5-5-5-5-5-5-5-|
|-0-0-0-0-4-4-4-4-5-5-5-5-5-5-5-5-|



tab taken from http://snap.to/spineshank
Related for Negative Space tab