Song name
# A B C D E F G H I J K L M N O P Q R S T U V W X Y Z

Spineshank - Transparent tab

I had a look at the other version of the song transparent, the bloke has the tabs right
not the order and some of it wasnt correct also. This is the complete version. This is
easy song to play, but with drums and bass its so effective and kicks ass. Im not to 
if the solo part is actually a solo, so bare with me. Also when the solo comes around adn
repeated the 5th time there is a lil guitar riff, i didnt bother takin the time to tab 
because there is only 2 guitars throughout the song.

Tuning: A E A D G B - Low to High

Intro:
|-----------------------------------------|
|-----------------------------------------|
|-----------------------------------------| x4
|-----------------7-7-8-8-8-8-------------|
|-----------------7-7-8-8-8-8-------------|
|--0-0-1-0-0-0-0--7-7-8-8-8-8-------------|

Verse:
|-----------------------------------------|
|-----------------------------------------|
|-----------------------------------------| x8
|--2-0-2-x-x-x-x--------------------------|
|--2-0-2-x-x-x-x--------------------------|
|--2-0-2-x-x-x-x--------------------------|

|-----------------------------------------|
|-----------------------------------------|
|-----------------------------------------| x4
|-----------------------------------------|
|-----------------------------------------|
|--2-0-2-0-0-2-0--------------------------|

|-----------------------------------------|
|-----------------------------------------|
|-----------------------------------------| x4
|--2-0-2-0-0-2-0---8-8-7-7-7-7------------|
|--2-0-2-0-0-2-0---8-8-7-7-7-7------------|
|--2-0-2-0-0-2-0---8-8-7-7-7-7------------|

Chorus:
|-----------------------------------------|
|----2-2---9-9---10-10---7----------------|
|----2-2---9-9---10-10---7----------------| x4
|--0-----7-----8-------5------------------|
|--0-----7-----8-------5------------------|
|--0-----7-----8-------5------------------|

Verse:
|-----------------------------------------|
|-----------------------------------------|
|-----------------------------------------| x8
|--2-0-2-x-x------------------------------|
|--2-0-2-x-x------------------------------|
|--2-0-2-x-x------------------------------|

|-----------------------------------------|
|-----------------------------------------|
|-----------------------------------------| x4
|-----------------------------------------|
|-----------------------------------------|
|--2-0-2-0-0-2-0--------------------------|

|-----------------------------------------|
|-----------------------------------------|
|-----------------------------------------| x4
|--2-0-2-0-0-2-0---8-8-7-7-7-7------------|
|--2-0-2-0-0-2-0---8-8-7-7-7-7------------|
|--2-0-2-0-0-2-0---8-8-7-7-7-7------------|

Chorus:
|-----------------------------------------|
|----2-2---9-9---10-10---7----------------|
|----2-2---9-9---10-10---7----------------| x4
|--0-----7-----8-------5------------------|
|--0-----7-----8-------5------------------|
|--0-----7-----8-------5------------------|

Verse:
|-----------------------------------------|
|-----------------------------------------|
|-----------------------------------------| x4
|--2-0-2-0-0-2-0---8-8-7-7-7-7------------|
|--2-0-2-0-0-2-0---8-8-7-7-7-7------------|
|--2-0-2-0-0-2-0---8-8-7-7-7-7------------|

Solo:
|-----------------------------------------|
|---2-2----9-9------10--10------7-7-------|
|--2-2-2--9-9-9---10--10--10---7-7-7------| x5
|-----------------------------------------|
|-----------------------------------------|
|-----------------------------------------|

While guitar 1 plays the 'solo' the second guitar plays this under:
|-----------------------------------------|
|-----------------------------------------|
|-----------------------------------------| x5
|--0-0----7-7----8-8----5-5---------------|
|--0-0----7-7----8-8----5-5---------------|
|--0-0----7-7----8-8----5-5---------------|

Chorus:
|-----------------------------------------|
|----2-2---9-9---10-10---7----------------|
|----2-2---9-9---10-10---7----------------| x8
|--0-----7-----8-------5------------------|
|--0-----7-----8-------5------------------|
|--0-----7-----8-------5------------------|

Verse:
|-----------------------------------------|
|-----------------------------------------|
|-----------------------------------------| x4
|--2-0-2-0-0-2-0---8-8-7-7-7-7------------|
|--2-0-2-0-0-2-0---8-8-7-7-7-7------------|
|--2-0-2-0-0-2-0---8-8-7-7-7-7------------|

outro:
|-----------------------------------------|
|-----------------------------------------|
|-----------------------------------------|
|--0--------------------------------------|
|--0--------------------------------------|
|--0--------------------------------------|

If there any questions email me: wake_dude_7@hotmail.com
Tap to rate this tab
# A B C D E F G H I J K L M N O P Q R S T U V W X Y Z