Song name
# A B C D E F G H I J K L M N O P Q R S T U V W X Y Z

Spineshank - Violent Mood Swings tab

the hardest part of playing this song is the speed. the second half of the verses is
to match the snare drum feel. the chorus is pretty straightforward. the bridge is also
good luck!!!!
INTRO RIFF
-----------------------------------------------------------------------------------------------------------------------------------------|
-----------------------------------------------------------------------------------------------------------------------------------------|
-----------------------------------------------------------------------------------------------------------------------------------------|
--7--7--7--7--7-10-10-10----7--7--7--7--7-10-10-10----7--7--7--7--7-10-10-10----12-12-12-12-12-12-12-12----------------------------------|
--5--5--5--5--5--8--8--8----5--5--5--5--5--8--8--8----5--5--5--5--5--8--8--8----10-10-10-10-10-10-10-10----------------------------------|
-----------------------------------------------------------------------------------------------------------------------------------------|

VERSE RIFF
-----------------------------------------------------------------------------------------------------------------------------------------|
-----------------------------------------------------------------------------------------------------------------------------------------|
-----------------------------------------------------------------------------------------------------------------------------------------|
-----------------------------------------------------------------------------------------------------------------------------------------|
--0--------------3--3--3-----0--------------3--3--3----0--------------3--3--3----5--5--5--5--5--5--5--5----------------------------------|
--0--0--0--0--0--3--3--3-----0--0--0--0--0--3--3--3----0--0--0--0--0--3--3--3----5--5--5--5--5--5--5--5----------------------------------|

TRANSITION 1
-----------------------------------------------------------------------------------------------------------------------------------------|
-----------------------------5---5---5-----5---5---5----5---5---5-----5---5---5-----5---5-----5---5--------------------------------------|
-----------------------------4---4---4-----4---4---4----4---4---4-----4---4---4-----4---4-----4---4--------------------------------------|
---2---2---2---2---2---2-----2---2---2-----2---2---2----2---2---2-----2---2---2-----2---2-----2---2--------------------------------------|
---2---2---2---2---2---2-----2---2---2-----2---2---2----2---2---2-----2---2---2-----2---2-----2---2--------------------------------------|
---2---2---2---2---2---2-----2---2---2-----2---2---2----2---2---2-----2---2---2-----2---2-----2---2--------------------------------------|

CHORUS
-----------------------------------------------------------------------------------------------------------------------------------------|
-----------------------------------------------------------------------------------------------------------------------------------------|
-----------------------------------------------------------------------------------------------------------------------------------------|
---7--7--7--7--7--7--7--7--3--3--3--3--3--3--3--3--5--5--5--5--5--5--5--5--5--5--5--5--5--5--5--5----------------------------------------|
---5--5--5--5--5--5--5--5--1--1--1--1--1--1--1--1--3--3--3--3--3--3--3--3--5--5--5--5--5--5--5--5----------------------------------------|
---------------------------------------------------------------------------5--5--5--5--5--5--5--5----------------------------------------|

TRANSITION 2
-----------------------------------------------------------------------------------------------------------------------------------------|
----------------------------10--10--10----10--10--10----10--10--10----10--10--10----10--10----10--10-------------------------------------|
-----------------------------9---9---9-----9---9---9-----9---9---9-----9---9---9-----9---9-----9---9-------------------------------------|
---7---7---7---7---7---7-----7---7---7-----7---7---7-----7---7---7-----7---7---7-----7---7-----7---7-------------------------------------|
---7---7---7---7---7---7-----7---7---7-----7---7---7-----7---7---7-----7---7---7-----7---7-----7---7-------------------------------------|
---7---7---7---7---7---7-----7---7---7-----7---7---7-----7---7---7-----7---7---7-----7---7-----7---7-------------------------------------|

HALF TIME BRIDGE
-----------------------------------------------------------------------------------------------------------------------------------------|
-----------------------------------------------------------------------------------------------------------------------------------------|
-----------------------------------------------------------------------------------------------------------------------------------------|
----------------------------------------------------------------------------------------3------------------------------------------------|
----------------------------------------------------------------------------------------3------------------------------------------------|
--0--0---0--3--0--1--0---3--1--0--1--3-3-3--------0--0---0--3--0--1--0---3--1--0---1--- 3------------------------------------------------|

*do the same part with chords but mute the stops

BUILDUP TO LAST CHORUS (you will never see)
----------------------------------------------------------------------------------------------------------------|
----------------------------------------------------------------------------------------------------------------|
-----------------------------------------------------------------------------------------7--10---7--10---7--10--|
-----------------------------------------------------------7--10---7--10--7---10--------------------------------|
-----------------------------------------------------------5---8---5---8---5---8---------5---8---5---8---5---8--|
 --0-0-0---3-3-3---0-0-0---3-3-3---0-0--3-3---------------------------------------------------------------------|


-------------------------------------------------|
-------------------------------------------------|
-------------------------------------------------|
-----------------------------3-------------------|
-----------------------------3--------------3-3--|
--0-0-0-0-0-0---0-0-0-0-0-0--3--3--1--0--1--3-3--|
                               (-----MUTED-------|

I got this from the Spineshank website.
Tap to rate this tab
 
# A B C D E F G H I J K L M N O P Q R S T U V W X Y Z