Song name
# A B C D E F G H I J K L M N O P Q R S T U V W X Y Z

Spineshank - Exit Wound Acceptance tab

Spineshank: Exit Wound (Acceptance)

Transcribed by: mysticguitar77

YouTube Channel: MysticGuitar77

Date last modified: February 11, 2014

Tuning: Drop C (C,G,C,F,A,D)

Riff 1 (acoustic) "What she feels, just short of nothing..."
D|-----------------------------------------------------------------|
A|-----------------------------------------------------------------|
F|-----------------3-----3-----3-----------------------------------|
C|-8-----8-----7---1-----1-----1---8-----7-----7---3-3-3-3-3-3-3-3-|
G|-5-----5-----5-0-1-----1-----1---5-----5-----5---3-3-3-3-3-3-3-3-|
C|-5-5-5-5-5-5-5-0-1-1-1-1-1-1-1-1-0-0-0-0-0-0-0-0-3-3-3-3-3-3-3-3-|

Play Riff 1 x5   "...and it all comes down, comes down..."

Riff 2 (clean electric)   "For me, it's just for me..." (let notes ring out)
D|--------------------------------------------------------|
A|--------------------------------------------------------|
F|---7------7-----7------7-----7------7-----7-------------|
C|-5------5---5--------------------------------10----10---|
G|--------------6------6---6-5------5---5----------8----8-|
C|----------------------------------------8---------------|

Riff 3 (distortion)   "If you take this all away..."
D|-------------------------------------------------------------------------|
A|-------------------------------------------------------------------------|
F|-7-7-7-7-7-7-7-7-10-10-10-10-5-5-5-5-3-3-3-3-3-3-3-3-10-10-10-10-5-5-5-5-|
C|-7-7-7-7-7-7-7-7-10-10-10-10-5-5-5-5-3-3-3-3-3-3-3-3-10-10-10-10-5-5-5-5-|
G|-5-5-5-5-5-5-5-5-8--8--8--8--3-3-3-3-1-1-1-1-1-1-1-1-8--8--8--8--3-3-3-3-|
C|-------------------------------------------------------------------------|

Play Riff 3 x2   "While your God looks the other way..."
Play Riff 2 x0.5
Play Riff 1 x3   "It's sickening, I'm still adjusting..."

Guitar 2 harmony during 2nd verse
D|--------------------|
A|--------------------|
F|-7-7-7-8--8--8--7-5-|
C|-8-8-8-10-10-10-8-7-| x12
G|--------------------|
C|--------------------|

Play Riff 3 x2   "If you take this all away..."

Riff 4 (clean w/ tape echo) "Patience broken, words aren't spoken..."
D|-----------------------------------------------------------------|
A|-----------------------------------------------------------------|
F|-3---3---3---3---3---3---3---3---3---3-2---2---2-3---3-2---2-3---|
C|---5---5---5---5---1---1---1---1---0-----0---0-----3-----3-----3-|
G|-----------------------------------------------------------------|
C|-----------------------------------------------------------------|

Play Riff 4 x2   "Conscience is broken..."

Riff 5   "For me, for me, it's all for me..."
D|-----------------------------------------------------------------|
A|-----------------------------------------------------------------|
F|-----------------------------------------------------------------|
C|-5-5-5-5-5-5-5-5-1-1-1-1-1-1-1-1-0-0-0-0-0-0-0-0-3-3-3-3-3-3-3-3-|
G|-5-5-5-5-5-5-5-5-1-1-1-1-1-1-1-1-0-0-0-0-0-0-0-0-3-3-3-3-3-3-3-3-|
C|-5-5-5-5-5-5-5-5-1-1-1-1-1-1-1-1-0-0-0-0-0-0-0-0-3-3-3-3-3-3-3-3-|

Play Riff 5 x6   "For me, it's all for me..."

Riff 5 (additional guitar)
D|------------------------------------------------------------------------|
A|-----------------/18~--16~--18-----------------/18~--16--16-18-16-------|
F|-/15~--14~--15~----------------/15~--14~--15~---------------------17-14-|
C|------------------------------------------------------------------------|
G|------------------------------------------------------------------------|
C|------------------------------------------------------------------------|
                  
Enjoy!!
Tap to rate this tab
 
# A B C D E F G H I J K L M N O P Q R S T U V W X Y Z