Song name
# A B C D E F G H I J K L M N O P Q R S T U V W X Y Z

Spineshank - Consumed Obssesive Cumpulsive tab

"Consumed(Obssesive Cumpulsive)"
Spineshank

Standard Tuning

Tabbed by *Cinnimini_AR*

Listen to the song to get the number of repeatitions
each part tabbed has.

Intro
e-------------------------|
b-------------------------|
g--3/4\3-3----------------|
d--3/4\3-3----------------|
a--5/6\5-5----------------|
e--3/4\3-3----------------|

e-------------------------|
b-------------------------|
g-------------------------|
d--7-7-7-7----------------|
a--7-7-7-7----------------|
e--5/6\5-5----------------|
"How can you live with yourself..."
"Punctured lungs..."

e----------------------------|
b----------------------------|
g---5---4---7---9------------|
d---5---4---7---9------------|
a---5---4---7---9------------|
e---3---x---5---7------------|

outro
e-----------------------------|
b-----------------------------|
g-5-/7\-5---------------------|
d-5-/7\-5---------------------|
a-7-/9\-7---------------------|
e-5-/7\-5---------------------|
Tap to rate this tab
# A B C D E F G H I J K L M N O P Q R S T U V W X Y Z