Song name
# A B C D E F G H I J K L M N O P Q R S T U V W X Y Z

Spineshank - Fallback tab

Band- Spineshank
Song- Fallback

Tuning: A#FA#D#GC

This is really easy

Intro
-------------------------------------------------|
-----------3--3--------------3--3-----------3--3-|
-------------------------------------------------|
-------------------------------------------------|
---2-2-2----------2-2-2--------------2-2---------|
---2-2-2----------2-2-2--------------2-2---------|

Verse
-------------------------------------------|
-------------------------------------------|
------------X-X----------------------------|
------------X-X----------------------------|
---2-2-2----X-X--0--2-2-2---x-x--0-2-2-2-0-|
---2-2-2----X-X--0--2-2-2---x-x--0-2-2-2-0-|


Pre Chorus
----------------------------------------------------------------|
----------------------------------------------------------------|
----------------------------------------------------------------|
----------------------------------------------------------------|
2-2-2-2-2-2-2-2-2-2-2-2-2-2-2-2-5-5-5-5-5-5-5-5-5-5-5-5-5-5-5-5-|
2-2-2-2-2-2-2-2-2-2-2-2-2-2-2-2-5-5-5-5-5-5-5-5-5-5-5-5-5-5-5-5-|

----------------------------------------------------------------|
----------------------------------------------------------------|
----------------------------------------------------------------|
----------------------------------------------------------------|
7-7-7-7-7-7-7-7-7-7-7-7-7-7-7-7-5-5-5-5-5-5-5-5-5-5-5-5-3-3-3-3-|
7-7-7-7-7-7-7-7-7-7-7-7-7-7-7-7-5-5-5-5-5-5-5-5-5-5-5-5-3-3-3-3-|

Chorus
----------------------------------------------------------------------|
---------3--3---------3--3-------3--3---------------------------------|
-----------------------------------------------7--7------------7--7---|
----------------------------------------------------------------------|
--2-2-2--------2-2-2--------2-2---------5-5-5---------5-5-5-----------|
--2-2-2--------2-2-2--------2-2---------5-5-5---------5-5-5-----------|

--------------------------------------------------------|
------------------------3--3----------3--3--------3--3--|
--------7--7--------------------------------------------|
--------------------------------------------------------|
5-5--------------2-2-2---------2-2-2---------2-2--------|
5-5--------------2-2-2---------2-2-2---------2-2--------|

--------------------------------------|
--------------------------------------|
----------7--7------------------------|
--------------------------------------|
--5-5-5----------5-5--7-7-7-8-8-8-8-8-|
--5-5-5----------5-5--7-7-7-8-8-8-8-8-|

Repeat Verse
Repeat Chorus

After Chorus
---------------------------------------------------------|
---------------------------------------------------------|
---------------------------------------------------------|
---------------------------------------------------------|
--2-2-2--2-2-2--2-2-2--2-2-2--2-2-2--2-2-2--2-2-2--2-2-2-|
--2-2-2--2-2-2--2-2-2--2-2-2--2-2-2--2-2-2--2-2-2--2-2-2-|

Bridge
-----------------------------------------------------------------|
-----------------------------------------------------------------|
-----------------------------------------------------------------|
-----------------------------------------------------------------|
--2-2-2---2-2-2---2-2----10-10-10-7-7-7-10-10-10-7-7-7-10-10-7-7-|
--2-2-2---2-2-2---2-2----10-10-10-7-7-7-10-10-10-7-7-7-10-10-7-7-|

When The Song Starts Getting Louder Play This
-----------------------------|
-----------------------------|
-----------------------------|
9----12-----9-----12------14-|
7----10-----7-----10------12-|
-----------------------------|

Repeat Chorus
Tap to rate this tab
# A B C D E F G H I J K L M N O P Q R S T U V W X Y Z