Song name
# A B C D E F G H I J K L M N O P Q R S T U V W X Y Z

Spineshank - If It Breathes tab

Band- Spineshank
Song- If It Breathes

Tuning: Drop A (A,E,A,D,G,B)


intro/verse:
------------------------------------------------------------------------------|
------------------------------------------------------------------------------|
------------------------------------------------------------------------------|
-0----3-----------------------------------------------------------------------|
-0----3-----------------------------------------------------------------------|
-0----3-----------------------------------------------------------------------|


chorus:
------------------------------------------------------------------------------|
------------------------------------------------------------------------------|
-----3-3-3-3-----------------------3-3-3-3------------------------------------|
-0-0-3-3-3-3-7-7-7-7-7-8-8-9---0-0-3-3-3-3-7-7-7-7-9--------------------------|
-0-0-1-1-1-1-7-7-7-7-7-8-8-9---0-0-1-1-1-1-7-7-7-7-9--------------------------|
-0-0---------7-7-7-7-7-8-8-9---0-0---------7-7-7-7-9--------------------------|


interlude 1:
------------------------------------------------------------------------------|
------------------------------------------------------------------------------|
----------------3-------------------------------------------------------------|
-0-0-0-0--0-0-0-3-------------------------------------------------------------|
-0-0-0-0--0-0-0-1-------------------------------------------------------------|
-0-0-0-0--0-0-0---------------------------------------------------------------|
 pm............


interlude 2:
------------------------------------------------------------------------------|
------------------------------------------------------------------------------|
----------------3-------------------------------------------------------------|
-0-0-0-0--0-0-0-3-------------------------------------------------------------|
-0-0-0-0--0-0-0-1-------------------------------------------------------------|
-0-0-0-0--0-0-0---------------------------------------------------------------|


outro:
------------------------------------------------------------------------------|
------------------------------------------------------------------------------|
------------------------------------------------------------------------------|
-0---3---0---1---0---3---0---1------------------------------------------------|
-0---3---0---1---0---3---0---1------------------------------------------------|
-0---3---0---1---0---3---0---1------------------------------------------------|
Tap to rate this tab
# A B C D E F G H I J K L M N O P Q R S T U V W X Y Z