Song name
# A B C D E F G H I J K L M N O P Q R S T U V W X Y Z

Spineshank - Dead To Me tab

NOTICE!: Mike Sariskyn from spineshank(guitarist) tabbed this, I DID NOT so please the 
should go to him for taking his time to do this and of course it is 100% without a doubt 
its done by the guy who made it,
I thought id take the time tho to bring it UG and share it so thank you everyone)

DEAD TO ME
TUNING: A#, F, A#, D#, G, C
practice your rhythm playing when playing this song. in the bridge listen to
what the drummer is doing. use a line6 delay modeler on the breakdown if not
a delay and a phaser will do. good luck!!! 
INTRO RIFF(high)

INTRO
C ||-------------------------------------------------------||
G ||-------------------------------------------------------||
D#||-------------------------------------------------------||
A#||--9-9-9-9-9-9-7-9-10-10-10-12-12-12-12-12--------------||
F ||--7-7-7-7-7-7-5-7--8--8--8-10-10-10-10-10--------------||
A#||-------------------------------------------------------|| 

INTRO/PRE CHORUS RIFF
C ||---------------------------||
G ||---------------------------||
D#||---------------------------||
A#||---------------------------||
F ||-2-2-2-0-2-3-3-3-5-5-5-5-5-||
A#||-2-2-2-0-2-3-3-3-5-5-5-5-5-|| 

VERSE RIFF
C ||---------------------------------------------------------------||
G ||---------------------------------------------------------------||
D#||---------------------------------------------------------------||
A#||---------------------------------------------------------------||
F ||-7-7-7-7-7-7-7-7-7-7-7-7--0--0--7-7-7-7-7-7-7-7-7-7-7-7--0--0--||
A#||--------------------------0--0---------------------------0--0--||

C ||----------------------------------------------------------------||
G ||----------------------------------------------------------------||
D#||----------------------------------------------------------------||
A#||----------------------------------------------------------------||
F ||-7-7-7-7-7-7-7-7-7-7-7-7--0--0--3-3-3-3-3-3-3-3-0-0-0-0-0-0-0-0-||
A#||--------------------------0--0----------------------------------||  

CHORUS
C ||-------------------------------------------------------------------||
G ||-------------------------------------------------------------------||
D#||--------------------------------------------5--5-5-5--10--10-10-10-||
A#||--------------------------------------------3--3-3-3---8---8--8--8-||
F ||-2--0-2-3--0-3-2--0-2-3--0-3-2--0-2-3--0-3-------------------------||
A#||-2--0-2-3--0-3-2--0-2-3--0-3-2--0-2-3--0-3-------------------------||

TRANSITION (play like this then an octave lower)
C ||------------------------------------------||
G ||------------------------------------------||
D#||------------------------------------------||
A#||-9-9-9-7-7-7-10-10-10-10-10-10-10-10--7-7-||
F ||-7-7-7-5-5-5--8--8--8--8--8--8--8--8--5-5-||
A#||------------------------------------------||

BRIDGE (repeat 4 times then do the tail)
C ||--------------------------||
G ||--------------------------||
D#||-----x-x-x--x-x-x-x-------||
A#||-----x-x-x--x-x-x-x-------||
F ||--2--x-x-x--x-x-x-x---0-2-||
A#||--2--x-x-x--x-x-x-x---0-2-||

TAIL
C ||------------||
G ||------------||
D#||------------||
A#||-2--0--3--0-||
F ||-2--0--3--0-||
A#||-2--0--3--0-||

BREAKDOWN (repeat 4 times with delay)
C ||-------------------------------------------------------------||
G ||-------------------------------------------------------------||
D#||-----9-9-10-10-10-10-----9-9-10-10-9-9-------9-9-10-10-10-10-||
A#||-------------------------------------------------------------||
F ||-7-7-----------------7-7---------------10-10-----------------||
A#||-------------------------------------------------------------||

C ||---------------------------------------||
G ||---------------------------------------||
D#||-------9-9-10-10-9-9-----9-9-10-10-9-9-||
A#||---------------------7-7---------------||
F ||-10-10---------------------------------||
A#||---------------------------------------||

C ||-----------------------------------------------------||
G ||-----------------------------------------------------||
D#||-10-10-10-10-----9-9-10-10-9-9-------9-9-10-10-10-10-||
A#||-------------7-7-------------------------------------||
F ||-------------------------------10-10-----------------||
A#||-----------------------------------------------------||

C ||-------------------------------------------||
G ||-------------------------------------------||
D#||-------9-9-10-10-10-10-------9-9-10-10-9-9-||
A#||-------------------------------------------||
F ||-10-10-----------------10-10---------------||
A#||-------------------------------------------||


* ENDING -SAME CHORDS AS THE CHORUS BUT FASTER
Tap to rate this tab
 
# A B C D E F G H I J K L M N O P Q R S T U V W X Y Z