Song name
# A B C D E F G H I J K L M N O P Q R S T U V W X Y Z

Spinnerette - Bury My Heart tab

I am radiolevans this it is my first tab they listen the song and assemble the 
listen my litle cover in
you tube :http://www.youtube.com/watch?v=bqSEZwzAMkg


part 1
1---------------------------------------------------------------- ----|
2------------------------riffs----------------------------------------|
3---4-5-4-5------------9-7-6------------------------------------------|
4-2-4-5-4-5-5----------9-7-6-5-9--------------------------------------|
5-2-2-3-2-3-5----------7-5-4-5-9--------------------------------------|
6-----------3----------------3-7--------------------------------------|

riff
1---------------------------------------------------------------------|
2-16-13----------------------16-----13----------------13--------------|
3------------15-------------------13-----13151315---------------------|
4-----------------13--------------------------------------------------|
5--------------------15-15--------------------------------------------|
6---------------------------------------------------------------------|


2-----------13-16-13-12-11
Tap to rate this tab
 
# A B C D E F G H I J K L M N O P Q R S T U V W X Y Z