Song name
# A B C D E F G H I J K L M N O P Q R S T U V W X Y Z

Spinvis - Dag 1 tab

Spinvis - Dag 1


E | --19--19--19--19--17--16----12-12-12-17-17-19-20--12-12-12-17-17-19-20|
B | --------------------------------------------------------------------------|
G | --------------------------------------------------------------------------|
D | --------------------------------------------------------------------------|
A | --------------------------------------------------------------------------|
E | --------------------------------------------------------------------------|

    Dit is de eerste dag, ik ben wakker en snel, ik zie scherper dan ooit


E | --15--12--15--12--15--12--15--15--12--15--17--15--12-------------------|
B | --------------------------------------------------------------------------|
G | --------------------------------------------------------------------------|
D | --------------------------------------------------------------------------|
A | --------------------------------------------------------------------------|
E | --------------------------------------------------------------------------|

       Luister luister luister hoor hoor maar hoe mijn hard bonkt


E | --19--19--19--19--17--16----12-12-12-17-17-19-20--12-12-12-17-17-19-20|
B | --------------------------------------------------------------------------|
G | --------------------------------------------------------------------------|
D | --------------------------------------------------------------------------|
A | --------------------------------------------------------------------------|
E | --------------------------------------------------------------------------|

        Dit is de eerste dag en op mijn net nieuwe huid, voel ik de zon voor het eerst

 
E | --15--12--15--12--15--12--15--15--12--15--17--15--12-------15--17--15--12-|
B | --------------------------------------------------------------------------|
G | --------------------------------------------------------------------------|
D | --------------------------------------------------------------------------|
A | --------------------------------------------------------------------------|
E | --------------------------------------------------------------------------|

        Adem in en adem uit voel ik hoe mijn bloed stroomt, hoe mijn bloed stroomt 


Trompetgedeelte:


E | --------------------------------------------------------------------------|
B | --12--12--12--12--10--9----5-5-5-10-10-12-13--5-5-5-10-10-12-13-----------|
G | --------------------------------------------------------------------------|
D | --------------------------------------------------------------------------|
A | --------------------------------------------------------------------------|
E | --------------------------------------------------------------------------|



E | --8--5--8--5--8--5--8--8--5--8--10--8--5-------15--17--15--12---------|
B | --------------------------------------------------------------------------|
G | --------------------------------------------------------------------------|
D | --------------------------------------------------------------------------|
A | --------------------------------------------------------------------------|
E | --------------------------------------------------------------------------|
Tap to rate this tab
# A B C D E F G H I J K L M N O P Q R S T U V W X Y Z