Song name
# A B C D E F G H I J K L M N O P Q R S T U V W X Y Z

Spinvis - Ik Wil Alleen Maar Zwemmen tab

Help us improve GuitareTab! Take a short survey!
----------------------------------------------------------------------
		Ik wil alleen maar zwemmen - Spinvis
----------------------------------------------------------------------
Tabbed by: deHufter
Email: kurtkill@hotmail.com

Tuning: standard

Intro + verse 1
e|-------------0---0----------2-----------------------------------------|
B|-----7---5---0-----0--------------------------------------------------|
G|-----8---6---1-------1----3----repeat until---------------------------|
D|-/9--9---7---2----------4---------------------------------------------|
A|----------------------------------------------------------------------|
E|----------------------------------------------------------------------|

'Ik hoor haar zingen Hallelujah, Hallelujah, zingt ze h':

Verse 2
e|-------------2---2----------0-----------------------------------------|
B|-----5---4---2-----2--------------------------------------------------|
G|-----6---4---3-------3----1-------------------------------------------|
D|-----6---4---4----------2---------------------------------------------|
A|--4-------------------------------------------------------------------|
E|----------------------------------------------------------------------|

That's basically it. These motifs are being repeated throughout the song, listen to the 
 changes.
The chords are:

    B   A   E  F#  C#m  B*
e|--7---5---0---2---4---2------------------------------------------------|
B|--7---5---0---2---5---4------------------------------------------------|
G|--8---6---1---3---6---4------------------------------------------------|
D|--9---7---2---4---6---4------------------------------------------------|
A|--9---7---2---4---4---2------------------------------------------------|
E|--7---5---0---2--------------------------------------------------------|
Related for Ik Wil Alleen Maar Zwemmen tab