Song name
# A B C D E F G H I J K L M N O P Q R S T U V W X Y Z

Spinvis - Limonade Glazen Wodka Live tab

Limonadeglazen Wodka (live) - Spinvis - Tab by 
Not the whole song, but it's a start!

Capo 2nd fret (standard tuning)

LH=Left Hand     RH=Right Hand
T=thumb    1=indexfinger    2=the finger    3=ringfinger

  1-4
    Dm             Am          C           Em          G
E|-------01p0---|-------0----|------0---|-------0----|------------------|
B|-----3-----3--|-------1----|------1---|-------0----|------------------|
G|----2---------|-----2----2-|----0---0-|-----0---0--|----0-------------|
D|--0-----------|------------|----------|------------|----0------0------|
A|--------------|--0---------|-3--------|------------|------2h-3--------|
E|--------------|------------|----------|--0---------|-3----------------|

LH: x 23  1  3     x  3 1  3   3  x 1 x    x  x x x    3  x 2  3 x

RH: T 12  3  2     T  1(23)1                           T(23)T    1



  5
    Dm
E|-------1-----|
B|-------3-----|
G|-----2---2---| Lots of times
D|--0----------|
A|-------------|
E|-------------|

    Em
E|--0----------|
B|--0----------|
G|--0----------|
D|--2----------|
A|--2----------|
E|--0----------|

    G
E|--3----------|
B|--0----------|
G|--0----------|
D|--0----------|
A|--2----------|
E|--3----------|
Tap to rate this tab
 
# A B C D E F G H I J K L M N O P Q R S T U V W X Y Z