Song name
# A B C D E F G H I J K L M N O P Q R S T U V W X Y Z

Spinvis - Bagagedrager chords

Highlighted       Show chord diagrams
Tabbed by: Alain R ( Belgium )
Email:eva1@mail.be

Tuning: standard

F#m     = 244222
Dmaj7   = x57675
Bm7     = x24232 or 797777
D       = xx0232
A       = x02220
[ch]E6/F#[/ch]   = 222424

From the begining guitar 1 always chord F#m

e|-2----------|
B|-2----------|
G|-2----------|
D|-4 ---------|
A|-4----------|
E|-2----------|


Bass

G|---------------------------------------------------|
D|---------------------------------------------------|
A|---------------------------------------------------|
E|-22--222---1010--101010-----77--777---1010-955-----|


Chords : F#m - D  - Bm7 - D - A ( you can ev. use them from the beginning )

or       F#m - Dmaj7 - Bm7 - D - A


Je droomt wel vaker van een feest
maar hier ben je nog nooit geweest
iedereen kijkt naar voetbal
en een vent zeurt aan je kop

Wat wil die man in hemelsnaam
hoe kom je hier
hoe kom je hier vandaan
en als je wegkomt
waarheen wou je dan wel gaan

Hij praat maar door maar jij dwaalt af
dus je weet niet wie de wedstrijd wint
als je luistert naar de wolken
als je luistert naar de wind

Je agenda en je zonnebril
wat doen die hier nou
maar je ligt weer in je eigen bed
in je eigen lot
en opeens staat alles stil

Instrumental part

Synthsolo ( on guitar )

e|-9-7----9--------9------9--------------9-----------------------------|
B|----------10-------7-----------------------------------------10------|
G|--------------------------9--------7-9---9-7/9-----------------------|
D|----------------------------------------------------12-11-12----12-11|
A|---------------------------------------------------------------------|
E|---------------------------------------------------------------------|


 [ch]E6/F#[/ch]
 een motor draait
 D
 de baby huilt
 Bm7
 een vogel schreeuwt
 D
 de dag begint
 A
 en de snelweg suist

second verse
 tis altijd wat en altijd spijt
 van al het geld en alle tijd
 op de onverharde wegen
 die je naar hier hebben geleid
 de ochtenden zijn wit en koud
 en hoe je ook je stuur vasthoudt
 de wind komt door je handschoenen heen
 je vingers zijn versteend
 zo is er altijd iets wat je verlamt
 en is het niet de wiet
 dan is het wel de drank of zo
 het spookt maar in je hoofd
 het was lang geleden een eeuwigheid
 je fietste op de afsluitdijk
 ik weet niet wat je er nu van vindt
 als je luistert naar de wolken
 als je luistert naar de wind
Tap to rate this tab
# A B C D E F G H I J K L M N O P Q R S T U V W X Y Z