Song name
# A B C D E F G H I J K L M N O P Q R S T U V W X Y Z

Spinvis - De Tuinen Van Mexico tab

www.spinvis.nl

Laura's moeder zet de radio weer aan....etc.

e------------------------------2---------|
b------------------------------2---------|
g-----3---------2------------3-----------|
d---2--2------1-1-----2----4-4-4---------|
a-3----------2--------2-2---4--4---------|
E---------------------0-------2----------|


Met de brommer gaan we langs het water...
e---1---0----3---2----|
b---1---0----0---3----|
g---3---1----0---4----|
d---2---2----2---4----|
a---2---2----2---2----|
E---1---0----0--------|

waar de visboer staat..
e--1---3------|
b--3---3------|
g--2---0------|
d-------0-----|
a-------2-----|
E-------3-----|

Laura's moeder is nog steeds op reis..
e--1---0-----|
b--1---2-----|
g--2---2-----|
d--3---2-----|
a--3---0-----|
E--1---------|


En niemand zingt meer over bloesems in de tuinen van..

e------------------------------2-2--------|
b------------------------------2----2-----|
g-----3---------2------------3------------|
d---2--2------1-1-----2----4--------------|
a-3----------2--------2-2---4-------------|
E---------------------0-------2-----------|

Mexico

e-------------------------------|
b-------------------------------|
g-----3---------2---------------|
d---2--2------1-1----2----------|
a-3----------2--------2---------|
E----------------------0--------|
Tap to rate this tab
# A B C D E F G H I J K L M N O P Q R S T U V W X Y Z