Song name
# A B C D E F G H I J K L M N O P Q R S T U V W X Y Z

Spirit Caravan - Cosmic Artefact tab

Here all the part of the song, learn the structure yourself it's really not difficult.

Tuning C#

Intro :

------------------------------------|
------------------------------------|
--------------7---------------------|
-------9~ (9)---9--7H9/7------------|
-------------------------/5-7-------|
-7-(7)------------------------5-----|

------------------------------------|
------------------------------------|
--------------4---------------------|
-------6~ (6)---6--4H6/4------------|
-------------------------/2-4-------|
-4-(4)------------------------2-----|

Little Changes before the verse part :

------------------------------------------|
------------------------------------------|
--------------14--------------------------|
-------16~ (16)---16--14H16/14------------|
-------------------------------/12-14-----|
-14-(14)------------------------------12--|


------------------------------------------|
------------------------------------------|
--------------12--------------------------|
-------14~ (14)---14--12H14/12------------|
-------------------------------/10-12-----|
-12-(12)------------------------------10--|

And go back in 4th Case for the finish of Intro :

------------------------------------|
------------------------------------|
--------------4---------------------|
-------6~ (6)---6--4H6/4------------| 1times
-------------------------/2-4-------|
-4-(4)------------------------2-----|

------------------------------------|
------------------------------------|
--------------4---------------------|
-------6~ 6-------6-4-6-------------|
-------------------------/2-4---2---|
-4-(4)------------------------2-----|


-----------------------------------|
-----------------------------------|
-----------------------------------|
-----------------------------------|
-6666666666666666666666666~~~~~~~~~
-4444444444444444444444444~~~~~~~~~


VERSE

-----------------------------------|
----11-11-11-11--9-9---------------|
11--11-11-11-11--9-9---------------|
11--9--9 -9 -9 --7-7---------------|
9----------------------------------|

-----------------------------------|
---6--6--6--6--4-4-----------------|
6--6--6--6--6--4-4-----------------|
6--4--4--4--4--2-2-----------------|
4----------------------------------|

Something Like we can call "Chorus"

--------------------------------------------------|
--------------------------------------------------|
--------------------------------------------------|
-------------------------------------------11-11--|
-13----9----11----6-6-----13----9----11----9--9---|
-11----7----9-----4-4-----11----7----9------------|


-The 1st VERSE Part is also the Rythm behind the solo part, After that "Wino" play 2 
times the chorus on the second string
and back on the original chorus like that :

--------------------------------------------------|
--------------------------------------------------|
-------------------------------------------11-11--|
-13----9----11----6-6-----13----9----11----9--9---|  X2
-11----7----9-----4-4-----11----7----9------------|
--------------------------------------------------|

--------------------------------------------------|
--------------------------------------------------|
--------------------------------------------------|
-------------------------------------------11-11--|
-13----9----11----6-6-----13----9----11----9--9---|
-11----7----9-----4-4-----11----7----9------------|

Then take the Intro and finish the song. Cheerz !
Tap to rate this tab
 
# A B C D E F G H I J K L M N O P Q R S T U V W X Y Z