Song name
# A B C D E F G H I J K L M N O P Q R S T U V W X Y Z

Spirit Caravan - Black Flower tab

Black Flower
by Spirit Caravan
Transcribed by AlexVich
E-mail: p_anter_a@hotmail.com

It's not all, but it should give you an idea of how it goes...
If you have anything to add, just e-mail me.

Guitar  w/distortion

D||-----------------------------------|---------------------------------||
A||-----------------------------------|---------------------------------||
F||*----------------------------------|--------------------------------*||
C||*----------------------------------|--------------------------------*||
G||-----------------------------------|----------------------5/7---5----||
D||---0-0-0-0-0-0-0-0-0-0-0-0-0-0-0-0-|--0-0-0-0-0-0-0-0-3/5-----3------||

---------------------------------||---------------------------|
---------------------------------||---------------------------|
*-------------------------------*||*--------------------------|
*-------------------------------*||*------------------6--5----|
---------------------------------||-------------------4--3----|
---2-1-0-0-2-1-0-0-7-8-7--5--0---||---0-2-2-2-5--2------------|

---------------------------||--------------------------|
---------------------------||--------------------------|
--------------------------*||------------------5--4----|
------------------4--2----*||------------------3--2----|
------------------2--0-----||--0-2-2-2-5--2------------|
--0-2-2-2-5--2-------------||--------------------------|

--------------------------|--------------------------|
--------------------------|--------------------------|
------------------4--2----|--------------------------|
------------------2--0----|------------------6--5----|
--0-2-2-2-5--2------------|------------------4--3----|
--------------------------|--0-2-2-2-5--2------------|

--------------------------||---------------------------------||
--------------------------||---------------------------------||
--------------------------||*-------------------------------*||
------------------4--2----||*-------------------------------*||
------------------2--0----||---------------------------------||
--0-2-2-2-5--2------------||---2-1-0-0-2-1-0-0-7-8-7--5--0---||
Tap to rate this tab
 
# A B C D E F G H I J K L M N O P Q R S T U V W X Y Z