Song name
# A B C D E F G H I J K L M N O P Q R S T U V W X Y Z

Spirit - Dark Eyed Woman tab

This is the intro and verse to the song Dark Eyed Woman by Spirit.  It's my first tab so 
with me.

Pm-Palm Mute
x-muted noted
~-vibrato
b-bend

E--------------------- | ------------------------ | ---------------------7------|
B--------------------- | ------------------------ | ----------------------------|
G--------------------- | ------------------------ | -----------------9b---------|
D----------------7~--- | --------------7-9b10-7~- | --------------7~------------|
A------------7-9----9~ | ----------7-9----------- | ----------7-9---------------|
E---5/7--7-9-----------| -5/7--7-9--------------- | -5/7--7-9-------------------|
                                                   *slowly bend and release last bent note*
                           PM-------                   PM------------------------|
E-------------------- | ------------------------- | -----------------------------|
B-------------------- | ------------------------- | -----------------------------|
G-------------------- | ------------------------- | -----------------------------|
D--11-11--7--9------- | -------------11-11-7--9-- | --------------11-11-7--9-----|
A--9--9---5--7------- | --9-9-x-9-9--9--9--5--7-- | --7-7-x-7-7---9--9--5--7-----|
E---------------------| --7-7-x-7-7-------------- | --5-5-x-5-5------------------|
                        *then i think its something like this*

E---------------------------------------|
B---------------------------------------|
G---------------------------------------|
D------- -------------------------------|
A---12-12-x-12-12----14-14-x-14-14------|
E---10-10-x-10-10----12-12-x-12-12------|   then just repeat this once more until the solo.


Enjoy, feedback would be appreciated
Tap to rate this tab
# A B C D E F G H I J K L M N O P Q R S T U V W X Y Z