Song name
# A B C D E F G H I J K L M N O P Q R S T U V W X Y Z

Spirit - Animal Zoo tab

"Animal Zoo"
 Spirit 
 12 Dreams of Dr. Sardonicus

Tabbed by pob1693

Standard Tuning	

Light Distortion

when you mute the notes barely hit the strings. listen to the song you'll get it

Intro
|----------------------------------------------|
|--------7--x-x--7---7--x-x--7---7--x-x--------|
|--------8--x-x--9---8--x-x--9---8--x-x--------| 	Repeat x 4
|--------9--x-x--9---9--x-x--9---9--x-x--------|   
|----------------------------------------------|
|----------------------------------------------|


       Livin' in the city I've been abused... (he has)
|----------------------------------------------|
|--------7--x-x--7---7--x-x--7---7--x-x--------|
|--------8--x-x--9---8--x-x--9---8--x-x--------| 	
|--------9--x-x--9---9--x-x--9---9--x-x--------|   
|----------------------------------------------|
|----------------------------------------------|


      The Jobs i keep and the people I meet...
|----------------------------------------------|
|--------5--x-x--5---5--x-x--5---5--x-x--------|
|--------6--x-x--7---6--x-x--7---6--x-x--------|  
|--------7--x-x--7---7--x-x--7---7--x-x--------|
|----------------------------------------------|
|----------------------------------------------|


   They don't do more than make me amused
|----------------------------------------------|
|----------------------------------------------|
|---7-----9---------5-5------------------------|
|---7-----9---------7-7------------------------|
|---5-----7---------7-7------------------------|
|------------5h7-------------------------------|


         Everywhere i turn now... just more bad
|----------------------------------------------|
|--------7--x-x--7---7--x-x--7---7--x-x--------|
|--------8--x-x--9---8--x-x--9---8--x-x--------| 	 
|--------9--x-x--9---9--x-x--9---9--x-x--------|   
|----------------------------------------------|
|----------------------------------------------|

        News...
|----------------------------------------------|
|--------5--x-x--5---5--x-x--5---5--x-x--------|
|--------6--x-x--7---6--x-x--7---6--x-x--------|  
|--------7--x-x--7---7--x-x--7---7--x-x--------|
|----------------------------------------------|
|----------------------------------------------|

         So don't look now, don't ask how
|----------------------------------------------|
|--------3--x-x--3---3--x-x--3---3--x-x--------|
|--------4--x-x--5---4--x-x--5---4--x-x--------|
|--------5--x-x--5---5--x-x--5---5--x-x--------|
|----------------------------------------------|
|----------------------------------------------|

   Gonna find me a way to the animal zoo
|----------------------------------------------|
|----------------------------------------------|
|---7----7-----9----9--------------------------|
|---7----7-----9----9--------------------------|
|---5----5-----7----7--------------------------|
|----------------------------------------------|



Repeat for next verse. 

this is all i have for now. 

email if any questions/corrections lilbreeze56@yahoo.com

Tap to rate this tab
 
# A B C D E F G H I J K L M N O P Q R S T U V W X Y Z