Song name
# A B C D E F G H I J K L M N O P Q R S T U V W X Y Z

Spirit - Fresh Garbage tab

                         Fresh Garbage by Spirit

A great song by an underappreciated band.

|--------------------------------------|      |-----------------|
|--------------------------------------|      |-----------------|
|-------------------7-----5------------|      |-------8--9------|
|-------7-----5------------------5-7---|      |----7--8--9--8---|
|----------------5-----7-----5-7-------|      |----7--6--7--8---|
|---5-----7----------------------------| x3   |----5--------6---| x1

|-----------------------------------------------------|
|-----------------------------------------------------|
|-----------------------------------------------------|
|------------------5---7------------5-----------------|
|---7---5---3---5----------7----5------5---7---3--5---|
|---5---3------------------5----3---------------------| x2

|-------------------------------------------|
|-------------------------------------------|
|---7/9--7--5---7---5b----------------------|
|-----------------------7--5--7--5----------|
|-----------------------------------7--5~---|
|-------------------------------------------|

And then the upcoming bass riff is:
|--------------------------|
|--------------------------|
|--------------------------|
|---7--5--7--5-------------|
|---------------7---6--7---|
|--------------------------|

Guitar also plays this near the end of bridge:
|-------------------|
|-------------------|
|-------------------|
|---7---5-------5---|
|-----------7-------|
|-------------------|

E-mail: steveman1236@gmail.com
Tap to rate this tab
# A B C D E F G H I J K L M N O P Q R S T U V W X Y Z