Song name
# A B C D E F G H I J K L M N O P Q R S T U V W X Y Z

Spirit - Streetworm tab

        (intro)
|--------------------------|
|--------------------------|
|--------------------------|
|------0-2-4-0-2-0---------|
|--2-4-------------4-2-0-2-|
|--------------------------|


     (chorus)
|---------------------------------|
|---------------------------------|
|--2----4-------------------------|
|--0----2----4-4-4-4--------------|
|------------2-2-2-2--------------|
|---------------------------------|


 (chorus)
|---
|---
|--2-4
|--0-2
|---
|---

|------------------------------------|
|------------------------------------|
|------------------------------------|
|--5-7-9-7-9-5-7-4-5-2-4-0-2---------|
|------------------------------------|        back to all of chorus then this again
|------------------------------------|


solo
|--19-17-16---------------------------|
|-------------------------------------|
|---------------11-11-9----9-11-------|
|-----------9-9---------12------12-9~-|
|-------------------------------------|
|-------------------------------------|

|--12b13--12b13--12b13--12b13--12b13--10-12-14-17----|
|-------------------------------------------------15-|
|----------------------------------------------------|
|----------------------------------------------------|
|----------------------------------------------------|
|----------------------------------------------------|

|----------------------------|
|----------------------------|
|------11-11-9----9-11-------|
|--9-9---------12------12-9~-|
|----------------------------|
|----------------------------|

|------------------------------|---------|-----------------|
|------------------------------|---------|--------10-7-----|
|------7-9b11--9-7---7---------|----7-10-|--9b11-------9-7-|
|--7-9-------------7---9~------|--9------|-----------------|
|------------------------------|---------|-----------------|
|------------------------------|---------|-----------------|

|--------7-|
|----------|
|--9b11----|
|----------|    (4x)
|----------|
|----------|

|--------|
|--12-12-|
|--------|
|--------|
|--------|
|--------|

|---------7-|
|--10b12----|
|-----------|
|-----------|   (6x)
|-----------|
|-----------|
                             sustsian
|-------------------------|-------|
|--10b12--13b15--9-10-9~--|--12~--|
|-------------------------|-------|
|-------------------------|-------|
|-------------------------|-------|
|-------------------------|-------|
Tap to rate this tab
# A B C D E F G H I J K L M N O P Q R S T U V W X Y Z