Song name
# A B C D E F G H I J K L M N O P Q R S T U V W X Y Z

Spiritfall - Already There tab

----------------------------------------------------------------------------
			  Already There - Spiritfall
----------------------------------------------------------------------------
Tabbed by: Cykotik
Email: dirrect_effect@hotmail.com

Tuning: Standard


::Intro/Verse::(Acoustic)
e|-0-000-00000-0000--0-000-00000-------------------------------------------|
B|-3-333-33000-0000--1-111-11000-------------------------------------------|
G|-0-000-00000-0000--0-000-00000-------------------------------------------|
D|-2-222-22222-2222--2-222-22222-------------------------------------------|
A|-3-333-33333-3333--3-222-33333-------------------------------------------|
E|-------------------------------------------------------------------------|


::Chourus::(Acoustic)
e|-2-222-2222222-22-0-000-0000000-00---------------------------------------|
B|-3-333-3333333-33-1-111-1111111-11---------------------------------------|
G|-2-222-2222222-22-2-222-2222222-22---------------------------------------|
D|-0-000-0000000-00-2-222-2222222-22---------------------------------------|
A|-------------------------------------------------------------------------|
E|-------------------------------------------------------------------------|

thats pretty much the whole song right there except the solo which has an electric 
over an acoustic playing the Intro/Verse again. listen to the song to figure out how much to 
each part and the exact strumming pattern. have fun little kiddies


| /  slide up
|   slide down
| h  hammer-on
| p  pull-off
| ~  vibrato
| +  harmonic
| x  Mute note
============================================================================
Tap to rate this tab
# A B C D E F G H I J K L M N O P Q R S T U V W X Y Z