Song name
# A B C D E F G H I J K L M N O P Q R S T U V W X Y Z

Spiritualized - Goodnight Goodnight tab

Spiritualized. Goodnight Goodnight

Standard Tuning. E.A.D.G.B.e.

Arpeggio Chord Patterns:

A
----------------------------|
--------------2-------------|
----------2------2----------|
------2--------------2------|
--0-------------------------|
----------------------------|

F#
--------------2-------------|
----------2------2----------|
------2--------------2------|
--4-------------------------|
----------------------------|
----------------------------|

D
--------------2-------------|
----------3-------3---------|
------2---------------2-----|
--0-------------------------|
----------------------------|
----------------------------|

E
--------------------------|
--------------------------|
--------------1-----------|
----------2------2--------|
------2-------------2-----|
--0-----------------------|



Verse 1:

A                    F#                 D
Goodnight goodnight, youre coming down, but its all right

                    E                        A
And dont look down, theres better things for you and I

                    F#                  D                      E
Ill hold you close, youll be all right, till morning comes Ill hold you tight

D                    E                  A
Goodnight goodnight, youre coming down, sweetheart.



Verse 2: (Strings Enter. Play notes over designated chords)

Viola For Guitar:

A     D    E    A         A    D    E     D    E    A
--------------------------------------------------------------|
--------------------------------------------------------------|
--------------------------------------------------------------|
--------------------------------------------------------------|
-4----5----5----4---//----4----5----5-----5----5----4---------|
--------------------------------------------------------------|

Cello For Guitar: (Barely Audible)

A     D    E    A         A    D    E     D    E    A
-------------------------------------------------------------|
-------------------------------------------------------------|
-------------------------------------------------------------|
-------------------------------------------------------------|
-------------------------------------------------------------|
-0----2----0----0---//----0----2----0-----2----0----0--------|

A                    F#                  D
Goodnight goodnight, till morning light, youll be okay

                    E                    A
And dont look down, theres better things another day

                    F#                  D                      E
Ill hold you close, youll be all right, till morning comes Ill hold you tight

D                    E                  A
Goodnight goodnight, youre coming down, sweetheart



Instrumental Break: (Viola & Cello Continue, Violins & Fender Rhodes Enter)

Violin 1 For Guitar:
                                           Let ring - - - -
-------------------------------------------------------------|
--10--9--7--5--15--14--12--10--9--14--12---10----------------|
-------------------------------------------------------------|
-------------------------------------------------------------|
-------------------------------------------------------------|
-------------------------------------------------------------|

Violin 2 For Guitar: (Enter on repeat of Violin 1)

                                            Let ring - - - -
-----------------------------------------------------------------|
-----------------------------------------------------------------|
-----6---4--2--6--2--1---2-1---2--4--2---1---9-------------------|
-----------------------------------------------------------------|
-----------------------------------------------------------------|
-----------------------------------------------------------------|

Fender Rhodes: (Heard in the mix playing over the .A. Chord)

A
------------------------------|
---------------10-------------|
-------6---9-------9----6-----|
---7--------------------------|
---0--------------------------|
------------------------------|


Verse 3: (Cello & Viola Continue)

A                    F#                 D
Goodnight goodnight, youre coming down, well bless your soul

                    E                         A
And dont look down, theres better things that you will know

(Violin 1 Enter)

                    F#                  D                      E
Ill hold you close, youll be all right, till morning comes Ill hold you tight

D                    E                  A
Goodnight goodnight, youre coming down, sweetheart


Outro: (Only Viola, Guitar, & Fender Rhodes Continue)

Viola:

Let ring (until end) - - - - - - - - - - - -
-------------------------------|
-------------------------------|
-------------------------------|
-------------------------------|
-7-----------------------------|
-------------------------------|

A
Funeral home, funeral home, funeral home, funeral home

END


~~~~~~~~~~~~~~~~~~~~+~~~~~~~~~~~~~~~~~~~~
Tap to rate this tab
 
# A B C D E F G H I J K L M N O P Q R S T U V W X Y Z