Song name
# A B C D E F G H I J K L M N O P Q R S T U V W X Y Z

Spiritualized - If I Were With Her Now tab

Artist: Spiritualized
Song: If I Were With Her Now
Album: Lazer Guided Melodies

(J.Pierce)

Repeat the following:

|---3---3---3---3---3---3---3---3-|
|-----3-------3-------3-------3---|
|-0-------0-------0-------0-------|
|---------------------------------|
|---------------------------------|
|---------------------------------|

|---3---3---3---3---3---3---3---3-|
|-----1-------1-------1-------1---|
|-0-------0-------0-------0-------|
|---------------------------------|
|---------------------------------|
|---------------------------------|

The chords that seen to pan over the top are:

    and
|-3-----3--------|
|-3-----1--------|
|-0-----0--------|
|----------------|
|----------------|
|----------------|

This is how to play that break:

|--------------------------------|
|-----3------3--------1------1---|
|---0------0--------0------0-----|
|--------------------------------|
|-----------------3------3-------|
|-3------3-----------------------|

Then back to the top for the rest of the song...

R.Milwain (milwain@btinternet.com)
Tap to rate this tab
# A B C D E F G H I J K L M N O P Q R S T U V W X Y Z