Song name
# A B C D E F G H I J K L M N O P Q R S T U V W X Y Z

Spitalfield - Gold Dust Vs The State Of Illinois tab

Here is intro for acoustic guitar, that is all I have for now I will try to get whole 
next time

Here it goes:
e----------------------\---------------------\---------------------\
B------2-------2\3\2---\-----2-------2\3\2---\----2--------2\3\2---\
G-----2---2---2-----2--\----2---2---2-----2--\---2----2---2-----2--\
D----------------------\---------------------\---------------------\
A---0----0---0---------\---------------------\---------------------\
E----------------------\--3----3---3---------\--2----2---2---------\


e----------------------\
B-----2--------2\3\2---\
G----2----2---2-----2--\
D----------------------\
A----------------------\
E---1----1---1---------\
Tap to rate this tab
# A B C D E F G H I J K L M N O P Q R S T U V W X Y Z