Guitaretab - guitar tabs
Song name
# A B C D E F G H I J K L M N O P Q R S T U V W X Y Z

Spitalfield - Fairweather Friend tab

Spitalfield  Fairweather Friend?
Tabbed by:?Mike D drcroc@gmail.com  ?I tabbed this for one guitar player, although 2 are 
this one is prominent throughout the song.

Tuning: EBGDAD high to low (Drop D)

Intro
e|--------------------------------------------------------------------------------|
B|--------------------------------------------------------------------------------|
G|---7/9-7-7/9-7---------7-------------------------------------4------------------|
D|---7/9-7-7/9-77/9----- harmonics across 7th fret-----x-------------------------|
A|---5/7-5-5/7-5-----------------------------------------------2------------------|
D|--------5------5----------------------------------------------------------------|

Verse
e|--------------------------------------------------------------------------------|
B|----+7------------+7-------------+7---------------------------------------------|
G|--------+7------------+7----------------7--7---x6x-x7x-x6x----------------------|
D|-------------+7------------+7-----------x--x------------------------------------|
A|------------------------------------------5--5----------------------------------|
D|--------------------------------------------------------------------------------|
[ Tab from: http://www.guitaretab.com/s/spitalfield/147591.html ]
Chorus
e|--------------------------------------------------------------------------------|
B|--------------------------------------------------------------------------------|
G|--7-9--11---14---7--9----4------6h7p6--------------------777-7-6-6-6-6----------|
D|--7-9--11---14---7--9----4--------------7--4-----4--------xxx-x-x-x-x-x---------|
A|--5-7--9----12---5--7----2---------------------7-----5---5-55-5-5-5-5-5- -------|
D|--5-7--9----12---5--7----2------------------------------------------------------|

Bridge part
e|-------------------------------------------------------------------------------|
B|-------------------------------------------------------------------------------|
G|-7-9-7--9-7-p---11-----------14---11-------------------------------------------|
D|-5-7-5--7-5-o-------12--11-------------12--11----------------------------------|
A|-5-7-5--7-5-t---------------------------------------12-------------------------|
D-5-7-5--7-5--s------------------------------------------------------------------|

Outro
e|------------------------------------------+5---------------------------------|
B|------------------------------------------+5----+7---------------------------|
G|--7-6--7-6-----------------------------+5-----+7-----------------------------|
D|--x-x--x-x----2---0--2--0--2--0--------------+7------------------------------|
A|--5-5--5-5----2---0--2--0--2--0----------------------------------------------|
D|--------------2---0--2--0--2--0----------------------------------------------|

| /  slide up
| \  slide down
| h  hammer-on
| p  pull-off
| ~  vibrato
| +  harmonic
| x  Mute note
Related for Fairweather Friend tab