Song name
# A B C D E F G H I J K L M N O P Q R S T U V W X Y Z

Spitalfield - In The Same Lifetime tab

Band: Spitalfield
Song: In The Same Lifetime
Album: Remember Right Now
Tabbed By: Matt Florio; myspace.com/mattflorio2
Email: Shempashland@yahoo.com

Simple song. Its 100% correct. Contact me if you need to.
Enjoy!

Tuning: Drop D

Intro
Guitar 1
e|------------------------------------|
B|---5---5---5---5---5---5------------|
G|----7---7---7---7---7---7-----------|
D|-----7---7-------7---7--------------|
A|------------------------------------|
E|------------------------------------|

Guitar 2
e|---5---5---5---5---------|
B|----5---5---5---5--------|
G|-----7---7---7---7-------|
D|------7---7---7---7------|
A|-------------------------|
E|-------------------------|

Verse
e|----0-------------0---------------|
B|----5-------------0---------------|
G|----7-------------7---------------|
D|----7-------------7---------------|
A|----0-------------5---------------|
E|------------------5---------------|
"shuts the door.... he thinks to"

Pre Chorus
e|---0--0--0--0--0-0--0-0---|
B|---0--0--0--0--0-0--0-0---|
G|---1--2--4--6--7-9--6-4---|
D|---2--4--6--7--9-11-7-6---|
A|---0--0--0--0--0-0--0-0---|
E|--------------------------|

Chorus
Guitar 1 
                             This part comes later
e|---------------------------|--------------------|
B|---5-3--5-3--5-3-5-3--5-3--|-----------------2--|
G|------2----2--------2----2-|--1h2p1h2-4-1h2p1---|
D|---------------------------|--------------------|
A|---------------------------|--------------------|
E|---------------------------|--------------------|

Guitar 2
e|---0--------------0---------------------0----------|
B|---0--------------0---------------------5----------|
G|---6--------------6---------------------6----------|
D|---7--------------7---------------------7----------|
A|---7--------------4---------------------0----------|
E|---7--------------4---------------------0----------|
     "she said move foward... wait for this."

when the band kicks in the Chorus is basically play the rest of the song
these are those chords
e|-----------------------|
B|-----------------------|
G|---9---6---669669------|
D|---7---4---00x00x------|
A|---7---4---007007------|
E|---7---4---00-00-------|

Outro
Guitar 1 plays this and Guitar 2 plays chorus chords
e|------------------------------------|
B|---10-7h9h10-7h9h10-7-7h9h10--------|
G|-------------------9-9--------------|
D|------------------------------------|
A|------------------------------------|
E|------------------------------------|

Guitar 1 or 2 can play this last part 
e|-----------------------------------------------------------------|
B|-----------------------------------------------------------------|
G|---14--13--11--9--13--11--13--16---14--13--11--9--13--11--13--14-|
D|----x---x---x--x---x---x---x---x----x---x---x--x---x---x---x---x-|
A|---12--11---9--7--11---9--11--14---12--11---9--7--11---9--11--12-|
E|-----------------------------------------------------------------|
Tap to rate this tab
# A B C D E F G H I J K L M N O P Q R S T U V W X Y Z