Song name
# A B C D E F G H I J K L M N O P Q R S T U V W X Y Z

Spitalfield - Its Cold Out There tab

Band: Spitalfield
Song: The Only Thing That Matters
Album: Better Than Knowing Where You Are
Tabbed by: matt florio; myspace.com/mattflorio2
Email: Shempashland@yahoo.com

This is a song by the band Spitalfield, called 'The Only Thing That Matters'. I am 100% 
is correct. If you have any questions or comments contact me! thanks!

Tuning: Drop D

Intro
Guitar 1
*11 (eleventh fret)
e|----------------------------------------------------------------|
B|----------------------------------------------------------------|
G|----*1111-77-------------6h7p6--1111-77-------------------------|
D|------------*1111-77---77--------------1111-77--77--------------|
A|---------------------99-----------------------99----------------|
E|--------------------------------------------------1212-11p9-----|

Guitar 2
e|-------------------------------------------------------------------|
B|-------------------------------------------------------------------|
G|-------------------------------------------------------------------|
D|---77---99-9-9--11-11-9-9--99-9-9--11-11-9-9---55---55--77--55-----|
A|---77---99-1212-9--9--1212-99-1212-9--9--1212--55---99--55--99-----|
E|---77---99-9-9--9--9--9-9--99-9-9--9--9--9-9---55---55--55--55-----|

after Intro and before the Verse
e|----00000000-----------|*also use as the prechorus
B|----55555555-----------|
G|----77777766-----------|
D|----77777777-----------|
A|-----------------------|
E|-----------------------|

Verse
Guitar 1
faint in the background
e|---------------------------------|
B|---------------------------------|
G|--1111-77-----------6h7----------|
D|---------1111-77--77-------------|
A|----------------99---------------|
E|---------------------------------|
PM

Guitar 2
e|-------------------------------|
B|-------------------------------|
G|---7-----7---------------------|
D|---7-----0---------------------|
A|---5-----9---------------------|
E|---5-----9---------------------|
 PM
"soft trace..."

Pre Chorus

Chorus
e|--------------------------|
B|---3---3---2---3---2------|
G|---0---2---2---4---2------|
D|---0---0---2---4---2------|
A|---5---0---0---2---0------|
E|---5---0------------------|

Guitar 2
e|---5---0---------------------------|
B|---5---0---2------(55)-------------|
G|---7---7---2---77--66--------------|
D|---7---7---2---00--00--------------|
A|---5---5---0---99--77--------------|
E|---5---0-------99--77--------------|

Interlude

Guitar 1
e|----------------------------------------------|
B|----------------------------------------------|
G|------777777------777777----------------------|
D|---99-xxxxxx---55-xxxxxx----------------------|
A|---99-555555---55-555555----------------------|
E|---99----------55-----------------------------|

Guitar 2
e|-----------------5----------------|
B|-----------------7----------------|
G|--------7777-----7----------------|
D|---9979-0000-997-7----------------|
A|---9979------997-5----------------|
E|---9979------997-5----------------|
"unless it is for you."

Intro 1X
Verse
Pre Chorus
Chorus
Pre Chorus

Bridge
Guitar 1 & Guitar 2
e|---------------------5----------------------------------|
B|---------------------5----------------------------------|
G|---------------------7---6------------------------------|
D|---7979-7b-979-7b-9--7---0---99-79-7b-979--7b-9---------|
A|---7979----979----9--5---7---99-79----979-----9---------|
E|---7979----979----9--5---7---99-79----979-----9---------|

Outro

Guitar 1
e|--------------|------------------------|
B|--------------|------------------------|
G|---7---9------|------------------------|
D|---5---7------|----------1111--11------|
A|---5---7------|------1212----12--------|
E|---5---7------|---99-------------------|

Guitar 2
e|------------------------------|---5-----0----------------------|
B|------------------------------|---7-----5----------------------|
G|---7---6----------------------|---7-----6----------------------|
D|---7---0----------------------|---5-----0-----------------11---|
A|---5---7----------------------|---5-----7-----------------12---|
E|---5---7----------------------|---5-----7------------------7---|
"the only thing that matters now... the only thing..could be perfect."
Tap to rate this tab
# A B C D E F G H I J K L M N O P Q R S T U V W X Y Z