Song name
# A B C D E F G H I J K L M N O P Q R S T U V W X Y Z

Spitalfield - Restraining Order Blues tab

Band: Spitalfield
Song: Restraining Order Blues
Album: Stop Doing Bad Things
Tabbed by: Matt Florio; myspace.com/mattflorio2
Email: shempashland@yahoo.com

This tab is 100% correct.
Contact me for any issues, questions, or comments.

Intro/Verses
e|-------0-----3----------|
B|-------0-----3----------|
G|------11-----0----------|
D|------12-----2----------|
A|--101010---222----------|
D|--101010---222----------|
PM  . .      ..

Pre Chorus
e|---5-----0-------|-------------------33xx--------------|
B|---5-----0-------|-------------------33xx--------------|
G|---7-----7-------|-44xx-66xx-77xxxx--00xx-66xx-77xxxx--|
D|---7-----0-------|-22xx-44xx-557755--22xx-44xx-557755--|
A|---5-----9-------|-22xx-44xx-557755--22xx-44xx-557755--|
D|---5-----9-------|-22xx-44xx-557755--22xx-44xx-557755--|
"Where do we go..."

Chorus
e|---5-----0----------------|
B|---7-----0----------------|
G|---7-----7----------------|
D|---5-----0----------------|
A|---5-----9----------------|
D|---5-----9----------------|
"You can throw out..."

Bridge
e|----0----3---0-----------|
B|----0----3---3-----------|
G|---12----0---2-----------|
D|---12----2---0-----------|
A|---10----2---0-----------|
D|---10----2---0-----------|
"I can feel..."

e|---3---3---0---------|
B|---3---3---3---------|
G|---0---0---2---------|
D|---2---2---0---------|
A|---3---2---0---------|
E|-------2---0---------|
"Can feel, when I breath you in.."

Solo/Outro                            *end on
e|---1010101010-12--1010101010-12---|----------|
B|----------------12-------------12-|-12-------|
G|----------------------------------|---12-11--|
D|----------------------------------|----------|
A|----------------------------------|----------|
E|----------------------------------|----------|
Tap to rate this tab
# A B C D E F G H I J K L M N O P Q R S T U V W X Y Z