Song name
# A B C D E F G H I J K L M N O P Q R S T U V W X Y Z

Spitalfield - Van Buren tab

Band: Spitalfield
Song: Van Buren
Album: Stop Doing Bad Things
Tabbed By: Matthew Florio, www.facebook.com/smeeplayscheap
Email: Shempashland@yahoo.com


Tab for 'Van Buren', off of Spitalfield's Stop Doing Bad Things album.

Intro/Chorus
|------------------------------------------------------------------------|
|------------------------------------------------------------------------|
|------------------------------------------------------------------------|
|-99--4/55-4/55--7-22--99--4/55-4/55--7-22--99--4/55-4/55-5-7-5555-22/77-|
|-99--4/55-4/55--7-22--99--4/55-4/55--7-22--99--4/55-4/55-5-7-5555-22/77-|
|-99--4/55-4/55--7-22--99--4/55-4/55--7-22--99--4/55-4/55-5-7-5555-22/77-|

Verse
|---------------------------|
|---------------------------|
|--7-7-7-7-77777777---------|
|--7-7-7-7-77777777---------|
|--5-5-5-5-44445555---------|
|--0-0-0-0-44445555---------|

or could play it this way
|-------------------------|
|-------------------------|
|--7-7-7-7----------------|
|--7-7-7-7-----7p0--------|
|--5-5-5-5---------0------|
|--0-0-0-0-0h4------4h5p0-|

Pre Chorus
|-------------------------------------------|
|-------------------------------------------|
|--7~--6~--x~--x~--7-7-7-6-6-6--------------|
|--0~--0~--2~--5~--0-0-0-0-0-0-2-2-2-5-5-5--|
|--9~--7~--2~--5~--9-9-9-7-7-7-2-2-2-5-5-5--|
|--9~--7~--2~--5~--9-9-9-7-7-7-2-2-2-5-5-5--|

Chorus

Verse 2
|---------------------------|
|---------------------------|
|--7-7-7-7-77777777---------|
|--7-7-7-7-77777777---------|
|--5-5-5-5-44445555---------|
|--0-0-0-0-44445555---------|

or could play it this way
|-------------------------|
|-------------------------|
|--7-7-7-7----------------|
|--7-7-7-7-----7p0--------|
|--5-5-5-5---------0------|
|--0-0-0-0-0h4------4h5p0-|

then
|-------------------------|
|-------------------------|
|--7777-7777-7777-7777----|
|--7777-7777-7777-7777----|
|--5555-xxxx-xxxx-xxxx----|
|--0000-7777-5555-7777----|
"are we living.."

Pre Chorus

Chorus (till end)
Tap to rate this tab
# A B C D E F G H I J K L M N O P Q R S T U V W X Y Z