Song name
# A B C D E F G H I J K L M N O P Q R S T U V W X Y Z

Spitalfield - Baritone Man To The Rescue tab

well many people probably dont know this band but theyre awesome. this song took me a
while because i couldnt hear the guitar but i finally got it. here it is.

Guitar 1
|------------------------------------|
|------------------------------------|
|---------------3--------------------|
|-5-5-3-5-5-3-5---5-3-3--------------|
|------------------------------------|
|------------------------------------|
Guitar 2
|------------------------------------|
|------------------------------------|
|------------------------------------|
|------------------------------------|
|-7-7-7-7-7-7-7-5-5-5----------------|
|-5-5-5-5-5-5-5-3-3-3----------------|


repeat that as many times as necessary.
 - david haugen
Tap to rate this tab
 
# A B C D E F G H I J K L M N O P Q R S T U V W X Y Z