Song name
# A B C D E F G H I J K L M N O P Q R S T U V W X Y Z

Spitalfield - What Were You Thinking tab

Band: Spitalfield
Song: What were you thinking
Album: Stop doing bad things
Tuning: Drop D(D,A,D,G,B,E)

Guitar 1(rythm)
Guitar 2(lead)

Intro Pt. 1(both guitars)
E----------------------------------------------------------|
B----------------------------------------------------------|
G----------------------------------------------------------|
D-44--000--33--000-----------------------------------------|
A-44--000--33--000-----------------------------------------|
D-44--000--33--000-----------------------------------------|x2

Intro Pt. 2(both guitars)
E----------------------------------------------------------|
B----------------------------------------------------------|
G----------------------------------------------------------|
D-44--000--33--000-xxxx------------------------------------|
A-44--000--33--000-xxxx------------------------------------|
D-44--000--33--000-xxxx------------------------------------|x4


Verse(guitar 1)
E----------------------------------------------------------|
B----------------------------------------------------------|
G----------------------------------------------------------|
D-11111111111111111111111111111111-9999999999999999--------|note: 11's 
A-10101010101010101010101010101010-8888888888888888--------| and  10's
D----------------------------------------------------------|x6
pm.................................................

Verse(guitar 2)(clean) 
E-4---4---4h5p4-4---4---4h5h7p5----------------------------|come in 
B---5---5---------5---5------------------------------------|when singin
G----------------------------------------------------------|starts
D----------------------------------------------------------|
A----------------------------------------------------------|
D----------------------------------------------------------|x5

Pre-Chorus Pt. 1(guitar 2)
E---------------------------------------------------------|haven't figured
B-1515151515151515141414141717171710101010101010109999999-|out pre-chours
G---------------------------------------------------------|for guitar 1 yet.
D---------------------------------------------------------|Sorry.
A---------------------------------------------------------|
D---------------------------------------------------------|x2

Pre-Chorus Pt. 2(both guitars)
E----------------------------------------------------------|
B----------------------------------------------------------|
G----------------------------------------------------------|
D-44--000--33--000-xxxx------------------------------------|
A-44--000--33--000-xxxx------------------------------------|
D-44--000--33--000-xxxx------------------------------------|x2

Haven't got the chorus yet, sorry.

Interlude(guitar 2)
E-4---4---4h5p4-4---4---4h5p4------------------------------|
B---5---5---------5---5------------------------------------|
G----------------------------------------------------------|
D----------------------------------------------------------|
A----------------------------------------------------------|
D----------------------------------------------------------|x2

Interlude(guitar 2)(continued)
E-16----16----16h17p16-16----16----16h17p16----------------|
B----17----17-------------17----17-------------------------|
G----------------------------------------------------------|
D----------------------------------------------------------|
A----------------------------------------------------------|
D----------------------------------------------------------|x2

Outro(both guitars)       guitar 2 plays this after 2 of the first part
E----------------------------|-4---4---4h5p4-4---4---------|
B----------------------------|---5---5---------5---5-------|
G----------------------------|-----------------------------|
D-10\-44--000--33--000-xxxx--|-----------------------------|
A-10\-44--000--33--000-xxxx--|-----------------------------|
D-10\-44--000--33--000-xxxx--|-----------------------------|
                        x4

And thats it. Sorry about the missing parts, I'll get them up
as soon as possible. Thanks and please rate.
Tap to rate this tab
# A B C D E F G H I J K L M N O P Q R S T U V W X Y Z