Song name
# A B C D E F G H I J K L M N O P Q R S T U V W X Y Z

Spitalfield - Restraining Order Blues tab

intro
e|----------0-----------3--2-3-------5/7---------------0-----------3-2-3-------|
B|----------0-----------3------3-3/5-------------------0-----------3----3-3/5-0|
G|---------11-----------x-----------------------------11-----------x-----------|
D|---------12-----------2-----------------------------12-----------2-----------|
A|10-10-10-10-----2-2-2-2--------------------10-10-10-10-----2-2-2-2-----------|
D|10-10-10-10-----2-2-2-2--------------------10-10-10-10-----2-2-2-2-----------|
pre chorus 1
e|----|
B|5-6-|
G|7-7-|
D|----|
A|5-5-|
D|-----
pre chorus2
e|-----0-----0------0-------------------|
B|-----7-----7------7-------------------|
G|-----7-----7------7-------------------|
D|2-2----4-4---5-5----5-5-7-7-----------|
A|2-2----4-4---5-5----5-5-7-7-----------|
D|2-2----4-4---5-5----5-5-7-7-----------|
chorus
e|-----2----------------------------------------------------------|
B|-7---3----------------------------------------------------------|
G|-7---4----------------------------------------------------------|
D|-5---4----------------------------------------------------------|
A|-5---2----------------------------------------------------------|
D|-5--------------------------------------------------------------|

repeat intro, pre choruses, chorus

outro
e|---------------------------------------------------------------|
B|---------------------------------------------3-----------------|
G|5---9-11-12-14--5--------9-11-12-14-----5----2-----------------|
D|5-2-------------5-x2----------------x2--5-2--0-----------------|
A|3-2-7-9--10-12--3----0-2-7--9-10-12-----3-2--0-----------------|
D|--2------------------0-2------------------2--0-----------------|

Tap to rate this tab
# A B C D E F G H I J K L M N O P Q R S T U V W X Y Z