Song name
# A B C D E F G H I J K L M N O P Q R S T U V W X Y Z

Spitalfield - Kill The Drama tab

Help us improve GuitareTab! Take a short survey!
Artist: Spitalfield
Song: Kill The Drama
Album: Remember Right Now
Tabbed by: Justin Robbins
Email: justinrobbins7@hotmail.com
Tuning: Standard

Ive always liked this song and figured it needed a tab. Not really difficult at all.


Intro

This is the easily definable higher pitched lead part to start the song after the drum 
Simple, seems slightly palm-muted, maybe a rectifying amp effect. Play the second part 
a small bridge into the verse. You'll know what to do when you hear it right after the initial intro.

e|------------10-10-9-9-------------|-------------------------------------|
B|--10-10-7-7-----------------------|-------------------------------------|
G|----7--7-7-7--7--7-7-7-------(x4)-|-11-11-12--11-11-11-12-11------------|
D|----------------------------------|-x--x--x---x--x--x--x--x-------------|
A|----------------------------------|-9--9--10--9--9--9--10-9-------------|
E|----------------------------------|-------------------------------------|


Verse

There is a first and second part of the verse. Youll notice how the second part extends 
you listen to the song. There is kind of a choppy timing to the chord play, but its easy 
you listen. Ill show it as well as I can.

Part 1
e|-------------------------------------------------------------------------|
B|-------------------------------------------------------------------------|
G|---77-7-7-77-7-7---1111-11-11-1111-11-11--1414-14-14-1414-14-14----------|
D|---xx-x-x-xx-x-x---x-x--x--x--x-x--x--x---x-x--x--x--x-x--x--x-----------|
A|---55-5-5-55-5-5---9-9--9--9--9-9--9--9---1212-12-12-1212-12-12----------|
E|-------------------------------------------------------------------------|

Part 2

e|-------------------------------------------------------------------------|
B|-------------------------------------------------------------------------|
G|---77-7-7-77-7-7---1111-11-11-1111-11-11--1414-14-14-1414-14-14----------|
D|---xx-x-x-xx-x-x---x-x--x--x--x-x--x--x---x-x--x--x--x-x--x--x----cont...|
A|---55-5-5-55-5-5---9-9--9--9--9-9--9--9---1212-12-12-1212-12-12----------|
E|-------------------------------------------------------------------------|

e|-------------------------------------------------------------------------|
B|-------------------------------------------------------------------------|
G|-----1111-11-11-99-9-9---7-xxx-7-xxx-7-xxx-7-----------------------------|
D|...--x-x--x--x--xx-x-x---x-xxx-x-xxx-x-xxx-x-----------------------------|
A|-----9-9--9--9--77-7-7---5-xxx-5-xxx-5-xxx-5-----------------------------|
E|-------------------------------------------------------------------------|


Chorus - No guitar that i can see really. "Can you hear me..." etc. has nothing but 
drums and extras, no guitar that I can make out. if i managed to miss it, e-mail me angrily.


Bridge 1

This is the part when they sing "Im turning around..." etc. Ive just given the chords to 
Writing it out wouldnt be as useful as just taking the chords yourself and playing it 
you hear fit. Its not hard, just alternate.


e|-------------------------------------------------------------------------|
B|-------------------------------------------------------------------------|
G|----7----6---------------------------------------------------------------|
D|----x----x----7----------------------------------------------------------|
A|----5----4----x----------------------------------------------------------|
E|--------------5----------------------------------------------------------|

Bridge 2

This is where the "What I dont know can not hurt me" part slows down, at about 2:23. 
are just chords played throughout until the fast one played at the end of this segment, 
i separated, and then a final few "build-up" chords leading into the songs outro.

e|-------------------|----------------------------------|------------------|
B|-------------------|----------------------------------|------------------|
G|----7-9-11-6-------|-18-------------------------------|-1111-12-111111--\|
D|----x-x-x--x-(x8)--|--x---(fast picked at end, breif)-|-x-x--x--x-x-x---\|
A|----5-7-9--4-------|-16-------------------------------|-9-9--10-9-9-9---\|
E|-------------------|----------------------------------|------------------|


Outro

The song ends with the Verse Part 2 being played to the chorus' words. End on:

e|-------|
B|-------|
G|--xxx--|
D|--xxx--|
A|--xxx--|
E|-------|

Thats all, hope you figured the song out and it was accurate for you, contact me with 
Have fun.

| /  slide up
| \  slide down
| h  hammer-on
| p  pull-off
| ~  vibrato
| +  harmonic
| x  Mute note
Related for Kill The Drama tab