Song name
# A B C D E F G H I J K L M N O P Q R S T U V W X Y Z

Spitalfield - Tampa Bum Blues tab

Artist: Spitalfield
Song: Tampa Bum Blues
Album: Stop Doing Bad Things
Tuning: Drop D(D,A,D,G,B,E)

I'm pretty sure I've got this 100% correct. So...yeah. Here it is.

pm . - palm mute
^ - bend
~ - let ring
\ - slide down

Intro(guitar 1)
E--------------------------------------------------------------|x6
B--------------------------------------------------------------|
G--------------------------------------------------------------|
D---5-7-5-7-5---5-7-5------------------------------------------|
A-5-----------7-------7-5-----5-7------------------------------|
D-------------------------5-7----------------------------------|

Intro(guitar 2)(come in after 2 measures of guitar 1)
E--------------------------------------------------------------|x2
B--------------------------------------------------------------|
G--------------------------------------------------------------|
D-777-555-777-0000000-444-555-777777777777---------------------|
A-777-555-777-0000000-444-555-777777777777---------------------|
D-777-555-777-0000000-444-555-777777777777---------------------|

Verse(guitar 1)
E--------------------------------0-----------------------------|x4
B--------------------------------0-----------------------------|
G--------------------------------0-----------------------------|
D-777-555-777-0000-77-55-444-555-7-----------------------------|
A-777-555-777-0000-77-55-444-555-7-----------------------------|
D-777-555-777-0000-77-55-444-555-7-----------------------------|
pm... ... ... .... .. .. ... ...                                 

Verse(guitar 2)(2 measures into the verse)
E--------------------------------------------------------------|
B--------------------------------------------------------------|
G-------------------------666666666666666666666666-------------|
D-777777777777777777777777-------------------------------------|
A--------------------------------------------------------------|
D--------------------------------------------------------------|
pm................................................

Pre-chorus(guitar 1)
E--------------------------------------------------------------|x2
B--------------------------------------------------------------|
G-77---55-55-57-75---------------------------------------------|
D-77---00-00-07-70---------------------------------------------|
A-00---00-00-00-00---------------------------------------------|
D--------------------------------------------------------------|

Pre-chorus(guitar 2)
E--------------------------------------------------------------|
B--------------------------------------------------------------|
G--------------------------------------------------------------|
D-77---33----77---33-------------------------------------------|
A-77---33----77---33-------------------------------------------|
D-77---33----77---33-------------------------------------------|

Chorus(guitar 1)
E--------------------------------------------------------------|x2
B-5-5-5555-55-5555-2-2-222-44-4--------------------------------|
G-6-6-6666-66-6666-2-2-222-55-5^6------------------------------|
D-7-7-7777-77-7777-4-4-444-66-6--------------------------------|
A-7-7-7777-77-7777-4-4-444-------------------------------------|
D--------------------------------------------------------------|
pm                         ..

Chorus(guitar 2)
E--------------------------------------------------------------|
B--------------------------------------------------------------|
G--------------------------------------------------------------|
D-7-7-7777-77-7777-4-4-444-55-5~-------------------------------|
A-7-7-7777-77-7777-4-4-444-55-5~-------------------------------|
D-7-7-7777-77-7777-4-4-444-55-5~-------------------------------|
pm                         ..

Pre-verse(guitar 1 only)
E--------------------------------------------------------------|x1
B--------------------------------------------------------------|
G--------------------------------------------------------------|
D---5-7-5-7-5---5-7-5------------------------------------------|
A-5-----------7-------7-5-----5-7------------------------------|
D-------------------------5-7----------------------------------|

Play verse again
Play chorus(twice as long this time)

Bridge pt. 1(guitar 1)
E--------------------------------------------------------------|x6
B--------------------------------------------------------------|
G--------------------------------------------------------------|
D-75---7575--7575----------------------------------------------|
A-75---7575--7575----------------------------------------------|
D--------------------------------------------------------------|

Bridge pt. 1(guitar 2)
E----------|comes in
B----------|just before
G----------|pt. 2 of the
D-4-5-77---|bridge
A-4-5-77---|
D-4-5-77---|

Bridge pt. 2(guitar 1)
E--------------------------------------------------------------|x4
B--------------------------------------------------------------|
G--------------------------------------------------------------|
D---5-7-5-7-5---5-7-5------------------------------------------|
A-5-----------7-------7-5-----5-7------------------------------|
D-------------------------5-7----------------------------------|

Bridge pt. 2(guitar 2)
E--------------------------------------------------------------|x4
B--------------------------------------------------------------|
G--------------------------------------------------------------|
D-75-7570-445577-----------------------------------------------|
A-75-7570-445577-----------------------------------------------|
D-75-7570-445577-----------------------------------------------|

Play the chorus again.

Outro(guitar 1)
E--------------------------------------------------------------|
B--------------------------------------------------------------|
G-77---55-55-57-75--77---55-55-57-75~\-------------------------|
D-77---00-00-07-70--77---00-00-07-70~\-------------------------|
A-00---00-00-00-00--00---00-00-00-00~\-------------------------|
D--------------------------------------------------------------|

Outro(guitar 2)
E--------------------------------------------------------------|
B--------------------------------------------------------------|
G--------------------7-75~\------------------------------------|
D-77---33----77---33-7-75~\------------------------------------|
A-77---33----77---33-5-53~\------------------------------------|
D-77---33----77---33-------------------------------------------|

And thats it. I'm almost positive its 100% correct. If not send me an email
at SaintJimmy10@yahoo.com
Thanks and please rate it.
Tap to rate this tab
# A B C D E F G H I J K L M N O P Q R S T U V W X Y Z