Song name
# A B C D E F G H I J K L M N O P Q R S T U V W X Y Z

Spitalfield - Those Days You Felt Alive tab

Band: Spitalfield
Song: Those Days You Felt Alive
Album: Remember Right Now
Tabbed By: Matt Florio; myspace.com/mattflorio2
Email: Shempashland@yahoo.com

I was going to just tab the intro but I figured I'd just tab the whole thing. I am 
100% sure this is all correct. Just listen to the song as a guide. If you have any questions 
ask.
Remember Spitalfield (1998-2007)

Tuning: Drop D

Intro
played 4x
e|-4---------------------------------|
B|---4-6-4---------------------------|
G|---------6-5-3---------------------|
D|---------------6-------------------|
A|-----------------------------------|
D|-----------------------------------|

this is played 3x
e|-----------------------------------|
B|-----------------------------------|
G|--------6--------------------------|
D|--88-6h8--4-4h6-6-6h8--------------|
A|--88------4-----6------------------|
D|--88------4-----6------------------|

this is played before the verse comes in
e|-----------------------------------|
B|-----------------------------------|
G|--66666666-------------------------|
D|--xxxxxxxx-------------------------|
A|--44444444-------------------------|
D|-----------------------------------|

Verse
two ways to play this
my way...
e|-----------------------------------|
B|-----------------------------------|
G|-----------------------------------|
D|--8888888-44444444-66666666-4444444|
A|--8888888-44444444-66666666-4444444|
D|--8888888-44444444-66666666-4444444|
PM

Ive seen Mark Rose play it this way
e|-----------------------------------|
B|-----------------------------------|
G|-----------------------------------|
D|--888888888888-444444444444--------|
A|--888888888888-444444444444--------|
D|--888888888888-444444444444--------|
PM
Prechorus
e|-----------------------------------|
B|-----------------------------------|
G|--66-565--------66-666-6-666-------|
D|--66-666-66-666-66-666-6-666-------|
A|--44-444-66-666-44-444-4-444-------|
D|---------66-666-44-444-4-444-------|

Chorus
e|---------------------------------------------|
B|------------------------------------4444-6666|
G|--6666------66666666---6666-6666-66-xxxx-xxxx|
D|--6666-6666-66666666---6666-6666-66-6666-8888|
A|--4444-6666-44444444---3333-4444-44-6666-8888|
D|-------6666-44444444---3333-4444-44-6666-8888|
I think.....             Go and change it...

Postchorus
e|------------------------------|
B|------------------------------|
G|--66666666--------------------|
D|--xxxxxxxx--------------------|
A|--44444444--------------------|
D|------------------------------|

Verse
Prechorus
chorus

Bridge
Repeat... listen to song for timing
Guitar 1
e|--4-----------------------------|
B|----4-6-------------------------|
G|----------3-5-6-----------------|
D|--------6-----------------------|
A|--------------------------------|
D|--------------------------------|

Guitar 2
First time you play this you just hold the chords.
e|----------------------------------|
B|----------------------------------|
G|--6--8-----6----------------------|
D|--6--8--8--6----------------------|
A|--4--6--8--4----------------------|
D|--------8--4----------------------|

Guitar 1
chords played once
e|--------------------------------------|
B|--------------------------------------|
G|--------------------------------------|
D|--3--4--6-----------------------------|
A|--3--4--6-----------------------------|
D|--3--4--6-----------------------------|

Guitar 2
chords played once
e|-----------------------------------|
B|-----------------------------------|
G|--5--6--13-------------------------|
D|--x--x--x--------------------------|
A|--3--4--11-------------------------|
D|-----------------------------------|

This comes in during that drum roll part
e|-----------------------------------|
B|-----------------------------------|
G|----666---666----------------------|
D|----xxx---xxx----------------------|
A|----444---444----------------------|
D|-----------------------------------|

e|-----------------------------------|
B|-----------------------------------|
G|-----------------------------------|
D|---3--4--6--88---------------------|
A|---3--4--6--88---------------------|
D|---3--4--6--88---------------------|

Chorus to end
Tap to rate this tab
# A B C D E F G H I J K L M N O P Q R S T U V W X Y Z