Song name
# A B C D E F G H I J K L M N O P Q R S T U V W X Y Z

Spitalfield - Texas With A Dollar Sign tab

just a few basic parts to this song. email me with any questions or correction  - Malongi9@aol.com

INTRO - GUITAR

                                            G   F

--------------------------x-x-x-x-x-x-x-----3---x------------------------|
--------------------------1-1-1-1-1-1-1-----0---1------------------------|
--------------------------2-2-2-2-2-2-2-----0---2------------------------|
-----3-3-3--2-2-2--0-0-0--3-3-3-3-3-3-3-----0---3------------------------|
-----0-0-0--0-0-0--0-0-0--3-3-3-3-3-3-3-----2---3------------------------|
--------------------------x-x-x-x-x-x-x-----3---x------------------------|


:52 (key change - then leads into chorus)

 Bbsus9   F               Am    G     F               Bbsus9   F

---1------x-----x---------0-----3-----x----------x-----1-------x-------|
---1------1-----x---------1-----0-----1----------x-----1-------1-------|
---3------2-----x--:------2-----0-----2-------:--x-----3-------2-------|
---3------3-----x--:------2-----0-----3-------:--x-----3-------3-------|
---1------3-----x---------0-----2-----3----------x-----1-------3-------|
---x------x-----x---------x-----3-----x----------x-----x-------x-------|

song is pretty repetitive. Again, email me with any questions or corrections.
Tap to rate this tab
# A B C D E F G H I J K L M N O P Q R S T U V W X Y Z