Song name
# A B C D E F G H I J K L M N O P Q R S T U V W X Y Z

Spitalfield - Better Than Knowking Where You Are tab

-------------------------------------------------------------------------------
Better than knowing where you are - Spitalfield
-------------------------------------------------------------------------------
Tabbed by: xanman
Email: xandervsoelen@hotmail.com

Tuning:

Intro:
e|---------------------------------------------------------------------------|
B|---------------------------------------------------------------------------|
G|---------------------------------------------------------------------------|
D|-10--5--7-8-9--3-----------------------------------------------------------|
A|-10--5--7-8-9--3-----------------------------------------------------------|
D|-10--5--7-8-9--3-----------------------------------------------------------|


Verse 1 (Muted)
e|---------------------------------------------------------------------------|
B|---------------------------------------------------------------------------|
G|---------------------------------------------------------------------------|
D|-10--5--7--3----10--5--12--3-----------------------------------------------|
A|-10--5--7--3----10--5--12--3-----------------------------------------------|
D|-10--5--7--3----10--5--12--3-----------------------------------------------|

Verse 1 continue...
e|------------------------------------------------------------------------------|
B|------------------------------------------------------------------------------|
G|------------------------------------------------------------------------------|
D|--7--10--3----1-3-5-8---------------------------------------------------------|
A|--7--10--3----1-3-5-8---------------------------------------------------------|
D|--7--10--3----1-3-5-8---------------------------------------------------------|

Chorus
e|---------------------------------------------------------------------------|
B|---------------------------------------------------------------------------|
G|---------------------------------------------------------------------------|
D|--3-3--3-3/7-7----3-3-3---3-3/7-7------1-1-1-1-----------------------------|
A|--3-3--3-3/7-7----3-3-3---3-3/7-7------1-1-1-1-----------------------------|
D|--3-3--3-3/7-7----3-3-3---3-3/7-7------1-1-1-1-----------------------------|

Repeat intro
Verse 2 Same as 1

Bridge                "Passes in the fact of a...."
e|---------------------------------------------------------------------------|
B|---------------------------------------------------------------------------|
G|---------------------------------------------------------------------------|
D|-1-3-5-0----1-3-5~ --3-7-10-5----------------------------------------------|
A|-1-3-5-0----1-3-5~ --3-7-10-5----------------------------------------------|
D|-1-3-5-0----1-3-5~ --3-7-10-5----------------------------------------------|

Outro
e|------------------------------------------------------------------------------|
B|------------------------------------------------------------------------------|
G|------------------------------------------------------------------------------|
D|-7-3-10-----------------------------------------------------------------------|
A|-7-3-10-----------------------------------------------------------------------|
D|-7-3-10-----------------------------------------------------------------------|

Easy Song!


| /  slide up
| \  slide down
| h  hammer-on
| p  pull-off
| ~  vibrato
| +  harmonic
| x  Mute note
===============================================================================
Tap to rate this tab
 
# A B C D E F G H I J K L M N O P Q R S T U V W X Y Z